Oops, an error
Loading. Please wait.

Legendary tab

13,213 views 9 this week
2 commentsread comments
1 2 3 4 5
x 5
add to favorites
×
Save as Personal and add changes to this tab that will be seen only by you. Learn more ›
×
You can save this tab as Personal to edit and correct it or add notes. All changes will be seen only by you. Learn more »
launch autoscroll
font size
0
reset
how to read this tab
guitar tuner
edit
Autoscroll
slow
fast
+/-
esc
set tempo
stop
Lou Barlow - Legendary

http://loobiecore.com/
http://www.myspace.com/loubarlow

Tabbed by Sam Wallis (sam_8orbetter@hotmail.co.uk)


Capo 2nd/3rd (album 2nd, live 3rd)

 
Intro, verse and break:

   Em             C              G            D
   
e|------------0-------------------------------0/2-2-0------------------------|
B|---------8---------------3---------0--------3---3---3----------------------|
G|-----0----------------0--------------0------0---0-----0--------------------|
D|-------------------2------------------------4---4--------------------------|
A|--7-------------3----------------2----------5---5--------------------------|
E|-------------------------------3-------------------------------------------|

   Em             C              G            G 

e|-------7-7------------0----------------------------------------|
B|-------8-8---------------3---------0--------------0------------|
G|-----0-------------------------------0--------------0----------|
D|-------------------2-------------------------------------------|
A|--7-------------3----------------2------------2----------------|
E|-------------------------------3------------3------------------|



CHORDS PICKED:

Em   C   G   D 

e--------------0---
B--8---3---0---3---
G--0---0---0---0---
D--5---2---0---4---
A--7---3---2---5---
E----------3-------

 
Em                  C                  G          D 
I know you've given all that you could give to me
Em                     C               G       G
I know there'll come a day I understand
Em                 C                    G      D 
Until then I'll be trying to solve your mystery
Em            C                G      G
Wonder why I couldn't make you stay


Em              C          G         D    
Smiling through denial, my speciality
Em                 C                G
I thought that was a good thing for awhile
Em                   C                 G         D 
You gave me all your secrets, were you testing me?
Em             C            G
How could I do anything but smile?

Em            C         G       D 
Re-enact your legendary tragedy
Em            C                  G     G
Do to me what has been done to you
Em               C                 G     D   
Is that the only point to all this misery
Em           C                 G      G  
Is there any reason I should cry?




            
            
Suggest correction
Creating personal tab
Creating personal tab
You can edit any tab online and save it as your Personal.

You can edit, replace or remove any tab part or add personal notes – all changes will be seen only by you.

Personal tabs can be accessed anytime from any device, even offline.
Learn more »
comments
print report bad tab
2 comments total.
0 reply
imamazing 10 Oct 16, 2009 07:05 AM

these tabs are really good. bravo

+3 reply
Jarom!r 223 Aug 03, 2011 12:06 AM

something doesnt fit here. this is the way i hear the intro

e|----------0------------------------0-2-0-----------7-7---------------------|
B|--------7-------------3------------3-----3-0-------------------------------|
G|--------0-----------0------------------------------------------------------|
D|--------------------------------0------------------------------------------|
A|-------------7/-3-3-----------2----5---------------------------------------|
E|---0-0------------------0-3-3-----------------0-0-------0-3-3--------------|


taken from this video: http://www.youtube.com/watch?v=ffwjCZ_Obts

guest
You may want to rate the tab now too:
select rating
Wanna post a correction for this tab? Suggest correction