Oops, an error
Loading. Please wait.

Devil Or Angel chords

511 views 3 this week
2 commentsread comments
1 2 3 4 5
2 more votes to show rating
add to favorites
×
Save as Personal and add changes to this tab that will be seen only by you. Learn more ›
×
You can save this tab as Personal to edit and correct it or add notes. All changes will be seen only by you. Learn more »
launch autoscroll
font size
0
reset
transpose
0
reset
simplify chords
display chords
guitar tuner
edit
Autoscroll
slow
fast
+/-
esc
set tempo
stop
Strumming
There is no strumming pattern for this song yet. and get +5 IQ
Video https://www.youtube.com/watch?v=N1nSeYks3Qw

Capo 1st fret

[Chords]  
   Amaj7   A6
e|---0------0----------------|-------------------------|
B|---2------2----------------|-------------------------|
G|---1------2----------------|-------------------------|
D|---2------4----------------|-------------------------|
A|---0------0----------------|-------------------------|
E|---0------0----------------|-------------------------|   


[Intro Base Riff]  

e|---0-----0-0-------0----0-0----|-----------0------------------0--------|
B|-2---2-------2---2--2-------1--|-2-2---------2------2-2---------2------|
G|-------2-------2------1-------2|-------2--------2---------2---------2--|
D|-------------------------------|-----4---4----4---4-----4---4-----4---4|
A|-------------------------------|---------------------------------------|
E|-------------------------------|---------------------------------------|   


[Verse]   
A                       Amaj7               
I'll never quite understand
                         A6                                 
Why we love to carry on wars, as we do
A                             Amaj7                              
And I haven't yet opened the doors
                             A6                            
That your bullets are already flying through            
A                               Amaj7                            
And I wish you'd stop claiming you surrender
     A6                                                      
Lay down the guns if you do


[Chorus]
      E                                                    
You accuse me of standing guard
   D                                                          
But wouldn't you
 E                                                         
Honey you're so quick to skip
       F#m                                                   
From praise to slander
E                      F#m                                    
Devil or angel I'm not one or the other
        C#m7                               A                   
And I'm sorry if I, if I disappoint you, so

                                                   
e|---0-----0-0-------0----0-0----|-----------0------------------0--------|
B|-2---2-------2---2--2-------1--|-2-2---------2------2-2---------2------|
G|-------2-------2------1-------2|-------2--------2---------2---------2--|
D|-------------------------------|-----4---4----4---4-----4---4-----4---4|
A|-------------------------------|---------------------------------------|
E|-------------------------------|---------------------------------------|   

[Verse]        
A                             Amaj7                     
And I'll never know where to stand
               A6                                           
When all your hell breaks loose
A                         Amaj7 
And I haven't yet said a word
                        A6                                  
That retaliation troops are on their way
A                              Amaj7        
And I wish you'd stop claiming you surrender
A6                                                          
Lay down the guns if you do

                                                          
[Chorus]
      E                                                    
You accuse me of standing guard
   D                                                          
But wouldn't you
 E                                                         
Honey you're so quick to skip
       F#m                                                   
From praise to slander
E                      F#m                                    
Devil or angel I'm not one or the other
        C#m7                               A                   
And I'm sorry if I, if I disappoint you, so

e|---0-----0-0-------0----0-0----|-----------0------------------0--------|
B|-2---2-------2---2--2-------1--|-2-2---------2------2-2---------2------|
G|-------2-------2------1-------2|-------2--------2---------2---------2--|
D|-------------------------------|-----4---4----4---4-----4---4-----4---4|
A|-------------------------------|---------------------------------------|
E|-------------------------------|---------------------------------------|    x3

[Outro]                                                          
A                             Amaj7                                                
And I wish you'd stop claiming you surrender
A6                                                          
Lay down the guns if you do
      E                                                    
You accuse me of standing guard
   D                                                          
But wouldn't you
 E                                                         
Honey you're so quick to skip
       F#m                                                   
From praise to slander
E                      F#m                                    
Devil or angel I'm not one or the other
        C#m7                                               
And I'm sorry if I, if I disappoint you, so    
 E                                                         
Honey you're so quick to skip
       F#m                                                   
From praise to slander
E                      F#m                                    
Devil or angel I'm not one or the other
        C#m7                                               
And I'm sorry if I, if I disappoint you, so     

e|---0-----0-0-------0----0-0----|---0-----0-0-------0----0-0----|
B|-2---2-------2---2--2-------1--|-2---2-------2---2--2-------1--|
G|-------2-------2------1-------2|-------2-------2------1-------2|
D|-------------------------------|-------------------------------|
A|-------------------------------|-------------------------------|
E|-------------------------------|-------------------------------|  
                                   A                 Amaj7                
                                  If I disappoint you, so

e|---0-----0-0-------0----0-0----|---0-----0-0-------0----0-0----|
B|-2---2-------2---2--2-------1--|-2---2-------2---2--2-------1--|
G|-------2-------2------1-------2|-------2-------2------1-------2|
D|-------------------------------|-------------------------------|
A|-------------------------------|-------------------------------|
E|-------------------------------|-------------------------------| 
                                   A                 Amaj7  
                                  If I disappoint you, so               


Suggest correction
Creating personal tab
Creating personal tab
You can edit any tab online and save it as your Personal.

You can edit, replace or remove any tab part or add personal notes – all changes will be seen only by you.

Personal tabs can be accessed anytime from any device, even offline.
Learn more »
Give kudos to tab author, rate the tab!
1 2 3 4 5
comments
print report bad tab
2 comments total.
+1 reply
guillermopeitto 10,340 Jul 23, 2016 05:59 AM, edited on August 2 2016, 02:52 pm

N.

0 reply
schoben 3,352 Aug 02, 2016 10:50 AM

Really nice song, thank you!!

guest
You may want to rate the tab now too:
select rating
Wanna post a correction for this tab? Suggest correction