Oops, an error
Loading. Please wait.

Spring Again Bass Tab

7 views 1 this week
no commentswrite comment
1 2 3 4 5
3 more votes to show rating
add to favorites
launch autoscroll
font size
0
reset
guitar tuner
Autoscroll
slow
fast
+/-
esc
set tempo
stop
Help us to improve Ultimate-Guitar.com Take our survey!
×
Author
Difficulty
novice
Tabbed by: 6METAL6BASSIST6
E-mail: petergriffinav@gmail.com

Tuning: EADG

G|----------------------------------------------------------------|
D|----------------------------3---------3---------------------3---| x2
A|------3-----4-----------3-------5---------5-4-----------3-------|
E|1---------1-----------------------------------------------------|

0:11

G|----------------------------------------------------------------|
D|----------------------------3---------3---------------------3---|
A|------3-----4-----------3-------5---------5-4-----------3-------|
E|1---------1-----------------------------------------------------|

G|----------------------------------------------------------------|
D|----------------------------3-----------------------------------|
A|------3-----4-----------3-------5-----3-----5-----------3-------|
E|1---------1-------------------------------5-----------------5---|

G|----------------------------------------------------------------|
D|------------5-------------------------------5-------------------|
A|------5---5-------------5-------------5---5-------------3-------|
E|3---------------------------6---3---------------------------1---|

G|----------------------------------------------------------------|
D|----------------------------------------------------------------|
A|------3---3-------------3-------3-----3---1-3---------------3---|
E|1-----------1---------------3---------------------------3-------|

0:33

G|----------------------------------------------------------------|
D|----------------------------3---------3---------------------3---|
A|------3-----4-----------3-------5---------5-4-----------3-------|
E|1---------1-----------------------------------------------------|

G|----------------------------------------------------------------|
D|----------------------------3-----------------------------------|
A|------3-----4-----------3-------5-----3-----5-----------3-------|
E|1---------1-------------------------------5-----------------5---|

G|----------------------------------------------------------------|
D|------------5---------------5-----------------------------------|
A|------5---5-------------5-----------------------3-------3-------|
E|3-------------------------------3-------3-----------------------|

G|----------------------------------------------------------------|
D|----------------------------3-------------------------------3---|
A|------3---3-------------3-------------3---3-------------3-------|
E|1-----------1-------------------1-----------1-------------------|

0:54

G|------------3---------------1---------------3---------------1---|
D|------3---3-------------3-------------3---3-------------3-------|
A|1-------------------------------1-------------------------------|
E|----------------------------------------------------------------|

G|----------------------------------------------------------------|
D|----------------------------3-----------------------------------|
A|------3---3-------------3-------------3---3-------------3---2---|
E|1-----------1-------------------1-----------1-------------------|

G|------------3---------------1---------------3-------------------|
D|------3---3-------------3-------------3---3-------------3-------|
A|1-------------------------------1---------------------------1---|
E|----------------------------------------------------------------|

G|----------------------------------------------------------------|
D|----------------------------------------------------------------|
A|3-----3-----3-------3-------1---3-----3-----3-------3-----------|
E|------------------------3-------------------------------3-------|

1:14

G|----------------------------------------------------------------|
D|----------------------------3---------3---------------------3---|
A|------3-----4-----------3-------5---------5-4-----------3-------|
E|1---------1-----------------------------------------------------|

G|----------------------------------------------------------------|
D|----------------------------3-----------------------------------|
A|------3-----4-----------3-------5-----3-----5-----------3-------|
E|1---------1-------------------------------5-----------------5---|

G|----------------------------------------------------------------|
D|------------5-------------------------------5-------------------|
A|------5---5-------------5-------------5---5-------------3-------|
E|3---------------------------6---3---------------------------1---|

G|----------------------------------------------------------------|
D|----------------------------3-------------------------------3---|
A|------3---3-------------3-------------3---3-------------3-------|
E|1-----------1-------------------1-----------1-------------------|

1:35

G|------------3---------------1---------------3---------------1---|
D|------3---3-------------3-------------3---3-------------3-------|
A|1-------------------------------1-------------------------------|
E|----------------------------------------------------------------|

G|----------------------------------------------------------------|
D|----------------------------3-------------------------------3---|
A|------3---3-------------3-------------3---3-------------3-------|
E|1-----------1-------1-----------1-----------1-------------------|

G|------------3---------------1---------------3-------------------|
D|------3---3-------------3-------------3---3-------------3-------|
A|1-------------------------------1---------------------------1---|
E|----------------------------------------------------------------|

G|----------------------------------------------------------------|
D|----------------------------------------------------------------|
A|3-----3-----3-------3-------1---3-----3-----3-------3---3-------|
E|------------------------3---------------------------------------|

1:56

G|----------------------------------------------------------------|
D|----------------------------3---------3---------------------3---|
A|------3-----4-----------3-------5---------5-4-----------3-------|
E|1---------1-----------------------------------------------------|

G|----------------------------------------------------------------|
D|----------------------------3-----------------------------------|
A|------3-----4-----------3-------5-----3-----5-----------3-------|
E|1---------1-------------------------------5-----------------5---|

G|----------------------------------------------------------------|
D|------------5-------------------------------5-------------------|
A|------5---5-------------5-------------5---5-------------3-------|
E|3---------------------------6---3---------------------------1---|

G|----------------------------------------------------------------|
D|----------------------------3-----------------------------------|
A|------3---3-------------3-------3-----3-----3-------3-------3---|
E|1-----------1-------------------------------------------3-------|

2:18

G|------------3---------------1---------------3---------------1---|
D|------3---3-------------3-------------3---3-------------3-------|
A|1-------------------------------1-------------------------------|
E|----------------------------------------------------------------|

G|----------------------------------------------------------------|
D|------------3---------------0---------------3---------------0---|
A|------3---3-------------3-------------3---3-------------3-------|
E|1-------------------------------1-------------------------------|

G|------------3---------------1---------------3-------------------|
D|------3---3-------------3-------------3---3-------------3-------|
A|1-------------------------------1---------------------------1---|
E|----------------------------------------------------------------|

G|----------------------------------------------------------------|
D|----------------------------------------------------------------|
A|3-----3---------3-----3---------3-----3---------3---------------|
E|--------------------------------------------3-----------3-------|

2:39

G|----------------------------------------------------------------|
D|----------------------------3---------3---------------------3---|
A|------3-----4-----------3-------5---------5-4-----------3-------|
E|1---------1-----------------------------------------------------|

G|----------------------------------------------------------------|
D|----------------------------3-----------------------------------|
A|------3-----4-----------3-------5-----3-----5-----------3-------|
E|1---------1-------------------------------5-----------------5---|

G|----------------------------------------------------------------|
D|------------5-------------------------------5-------------------|
A|------5---5-------------5-------------5---5-------------3-------|
E|3---------------------------6---3---------------------------1---|

G|----------------------------------------------------------------|
D|----------------------------3-----------------------------------|
A|------3---3-------------3-------3-----3-----3---------------3---|
E|1-----------1-------1-----------------------------------3-------|

3:00 until fadeout.

G|----------------------------------------------------------------|
D|----------------------------3---------3---------------------3---|
A|------3-----4-----------3-------5---------5-4-----------3-------|
E|1---------1-----------------------------------------------------|
Suggest correction
Give kudos to tab author, rate the tab!
1 2 3 4 5
comments
print report bad tab
guest
You may want to rate the tab now too:
select rating
Wanna post a correction for this tab? Suggest correction