Oops, an error
Loading. Please wait.

The Gun bass

4,906 views 6 this week
2 commentsread comments
1 2 3 4 5
x 3
add to favorites
×
Save as Personal and add changes to this tab that will be seen only by you. Learn more ›
×
You can save this tab as Personal to edit and correct it or add notes. All changes will be seen only by you. Learn more »
launch autoscroll
font size
0
reset
guitar tuner
edit
Autoscroll
slow
fast
+/-
esc
set tempo
stop
Difficulty
-----------------------------------------------------------------------------
			     The Gun - Lou Reed
-----------------------------------------------------------------------------

Tabbed By : chris
e-mail:

I heard this song on a Lou Reed album i just got and it blew my mind.
I can't find the bass tab for it anywhere so i took a stab.
Let me know what you think!

Tuning: standard

bass comes in at 0:30...

G|-------|
D|--7/---|
A|-------|
E|-------|

G|-------------------------------------2---|
D|-------------------------------5-------3-|
A|-----0-55-3\5-------0-3\5----------------|
E|----------------0------------------------|

then the bassist gets a bit groovy with it a couple times at 1:35...

G|-----------------5-7---10/9-7----------2---|
D|---------------7-----------------5-------3-|
A|----0-55-3\5-------------------------------|
E|-------------------------------------------|

that's pretty much it. lemme know if you have any suggestions or corrections...


| /  slide up
| \  slide down
| h  hammer-on
| p  pull-off
| ~  vibrato
| +  harmonic
| x  Mute note
Suggest correction
Creating personal tab
Creating personal tab
You can edit any tab online and save it as your Personal.

You can edit, replace or remove any tab part or add personal notes – all changes will be seen only by you.

Personal tabs can be accessed anytime from any device, even offline.
Learn more »
Give kudos to tab author, rate the tab!
1 2 3 4 5
comments
print report bad tab
2 comments total.
0 reply
hanku8 20 Aug 05, 2012 08:54 AM

Im pretty shure that 4th string is in D. But everything else is Ok.

0 reply
Peace n' Love 10 Feb 15, 2013 02:33 AM

As hanku8 said,the tunning is drop D,everything else is fine.

guest
Wanna post a correction for this tab? Suggest correction