Oops, an error
Loading. Please wait.

Vicious bass

version 1
version 1

Whole song

6,306 views 9 this week
no commentswrite comment
1 2 3 4 5
x 3
add to favorites
×
Save as Personal and add changes to this tab that will be seen only by you. Learn more ›
×
You can save this tab as Personal to edit and correct it or add notes. All changes will be seen only by you. Learn more »
launch autoscroll
font size
0
reset
guitar tuner
edit
Autoscroll
slow
fast
+/-
esc
set tempo
stop
Author
-------------------------------------------------------------------------------
			     Vicious Lou Reed
-------------------------------------------------------------------------------

Tabbed By : Phil Starr
e-mail:

This is not an exact copy which I think would need at least a fretless but it
works when played along with the record. Simple to play and you will develop your 
own variation. Any chance one or two of you could give this a rating?


Tuning:EADG

G|-----------------------------------------------------------------------------|
D|-----------------------------------------------------------------------------|
A|-5-5-5-3---------------------------------------------------------------------|
E|-----------3--33--5----------------------------------------------------------|

This is the basic riff repeated through the verse and intro

G|-----------------------------------------------------------------------------|
D|-----------------------------------------------------------------------------|
A|-5-5-5--3--5-5-5-------------------------------------------------------------|
E|-----------------------------------------------------------------------------|
Variation at the end of the second and fourth verses

G|-----------------------------------------------------------------------------|
D|-----------------------------------------------------------------------------|
A|---------------------55-33-535-----------------------------------------------|
E|--5-0-55-5--3-0-33-3---------------------------------------------------------|
Chorus (When I see you come etc.)

G|---------------------------------------------------------------------------|
D|---------------------------------------------------------------------------|
A|-7-7--99-9-10-10-10---10-77--99--910-1010--77-99-1010-12-12\---------------|
E|---------------------------------------------------------------------------|
Bridge (When I see you coming down the street…)

That’s it; you are basically just playing the root notes except for the A at the end of 
basic riff. Listen to the record for the rhythm. I find myself slipping in extra notes 
dropping some out for variation. The song is very forgiving.

| /  slide up
| \  slide down
| h  hammer-on
| p  pull-off
| ~  vibrato
| +  harmonic
| x  Mute note
===============================================================================

            
            
Suggest correction
Creating personal tab
Creating personal tab
You can edit any tab online and save it as your Personal.

You can edit, replace or remove any tab part or add personal notes – all changes will be seen only by you.

Personal tabs can be accessed anytime from any device, even offline.
Learn more »
Give kudos to tab author, rate the tab!
1 2 3 4 5
comments
print report bad tab
guest
You may want to rate the tab now too:
select rating
Wanna post a correction for this tab? Suggest correction