Oops, an error
Loading. Please wait.

Frustration bass

195 views 1 this week
no commentswrite comment
1 2 3 4 5
2 more votes to show rating
add to favorites
×
Save as Personal and add changes to this tab that will be seen only by you. Learn more ›
×
You can save this tab as Personal to edit and correct it or add notes. All changes will be seen only by you. Learn more »
launch autoscroll
font size
0
reset
guitar tuner
edit
Autoscroll
slow
fast
+/-
esc
set tempo
stop
Author
Difficulty
-------------------------------------------------------------------------------
                             Frustration - Lou Reed And Metallica
-------------------------------------------------------------------------------
Tabbed by: MetallicaDMRTL
Tuning:BEADG, if 4 BEAD

0:58
G|---------|-----------------------|---------|-----------------|
D|---------|-----------------------|---------|-----------------|
A|---------|-------------------6-5-|---------|-----------------| x4
E|-6h8-8-8-|-6-8-6-8-9-8-6-8-6-----|-6h8-8-8-|-6-8-6-8-9-8-6---|
B|---------|-----------------------|---------|---------------7-|

                       Distortion
G|--------------|    |--------------|
D|--------------|    |--------------|            one of these is correct
A|-5--5-5-5-5-5-| or |--------------| x6      hard to say so pick one and
E|-3--3-3-3-3-3-|    |-3--3-3-3-3-3-|                   play it x6
B|--------------|    |--------------|

  Distortion
G|-------------------|
D|-------------------|
A|-------------------|
E|-3///-8///---------|
B|------------15\\\\-|

G|---------|-----------------------|---------|-----------------|
D|---------|-----------------------|---------|-----------------|
A|---------|-------------------6-5-|---------|-----------------| x2
E|-6h8-8-8-|-6-8-6-8-9-8-6-8-6-----|-6h8-8-8-|-6-8-6-8-9-8-6---|
B|---------|-----------------------|---------|---------------7-|

G|---------|-----------------------|---------|-------------------|
D|---------|-----------------------|---------|-------------------|
A|---------|-----------------------|---------|-------------------| x2
E|---------|-----------------------|---------|---------------4\\-|
B|-1h3-3-3-|-1-3-1-3-4-3-1-3-1-6-5-|-1h3-3-3-|-1-3-1-3-4-3-1-----|

                       Distortion
G|--------------|    |--------------|
D|--------------|    |--------------|            one of these is correct
A|-5--5-5-5-5-5-| or |--------------| x2      hard to say so pick one and
E|-3--3-3-3-3-3-|    |-3--3-3-3-3-3-|                   play it x2
B|--------------|    |--------------|

G|---------|-----------------------|---------|-----------------|
D|---------|-----------------------|---------|-----------------|
A|---------|-------------------6-5-|---------|-----------------| x4
E|-6h8-8-8-|-6-8-6-8-9-8-6-8-6-----|-6h8-8-8-|-6-8-6-8-9-8-6---|
B|---------|-----------------------|---------|---------------7-|

G|--------------|    |--------------|
D|--------------|    |--------------|            one of these is correct
A|-5--5-5-5-5-5-| or |--------------| x6      hard to say so pick one and
E|-3--3-3-3-3-3-|    |-3--3-3-3-3-3-|                   play it x6
B|--------------|    |--------------|

  Distortion
G|-------------------|
D|-------------------|
A|-------------------|
E|-3////////---------|
B|------------15\\\\-|

G|---------|-----------------------|---------|-----------------|
D|---------|-----------------------|---------|-----------------|
A|---------|-------------------6-5-|---------|-----------------| x2
E|-6h8-8-8-|-6-8-6-8-9-8-6-8-6-----|-6h8-8-8-|-6-8-6-8-9-8-6---|
B|---------|-----------------------|---------|---------------7-|

G|---------|-----------------------|---------|-------------------|
D|---------|-----------------------|---------|-------------------|
A|---------|-----------------------|---------|-------------------| x2
E|---------|-----------------------|---------|---------------4\\-|
B|-1h3-3-3-|-1-3-1-3-4-3-1-3-1-6-5-|-1h3-3-3-|-1-3-1-3-4-3-1-----|

                       Distortion
G|--------------|    |--------------|
D|--------------|    |--------------|            one of these is correct
A|-5--5-5-5-5-5-| or |--------------| x2      hard to say so pick one and
E|-3--3-3-3-3-3-|    |-3--3-3-3-3-3-|                   play it x2
B|--------------|    |--------------|

6:27
G|---------------------------------|--------------------------|
D|---------------------------------|--------------------------|
A|-----------------------------6-5-|--------------------------| x4
E|-6h8-8-6h8-8-6h8-8-6h8-8-6h8-----|-6h8-8-6h8-8-6-8-8b-6-8---|
B|---------------------------------|------------------------7-|

G|-------------------------|-------------------|
D|-------------------------|-------------------|
A|---------------------6-5-|-------------------| x4
E|-6h8-6h8-6h8-6h8-6h8-----|-6h8-6h8-6h8-6h8---|
B|-------------------------|-----------------7-|

G|------------------------|
D|------------------------|
A|------------------------| x3
E|------------------------|
B|-1--8b8b8b-6b6b6b~--4-4-|

G|---------------------------|
D|---------------------------|
A|---------------------------|
E|---------------------------|
B|-1--8b8b8b-6b6b6b~--4-4\\\-|

G|---------------------------------|----------------------------|
D|---------------------------------|----------------------------|
A|-----------------------------6-5-|----------------------------|
E|-6h8-8-6h8-8-6h8-8-6h8-8-6h8-----|-6h8-8-6h8-8-6-8-8-6b-8b----|
B|---------------------------------|-------------------------7b-|

G|---------------------------------|--------------------------|
D|---------------------------------|--------------------------|
A|-----------------------------6-5-|--------------------------| x7
E|-6h8-8-6h8-8-6h8-8-6h8-8-6h8-----|-6h8-8-6h8-8-6-8-8b-6-8---|
B|---------------------------------|------------------------7-|

8:18
G|---------|-----------------------|---------|-----------------|
D|---------|-----------------------|---------|-----------------|
A|---------|-------------------6-5-|---------|-----------------|
E|-6h8-8-8-|-6-8-6-8-9-8-6-8-6-----|-6h8-8-8-|-6-8-6-8-9-8-6---|
B|---------|-----------------------|---------|---------------7-|

G|---------|-----------------------|---------|--------------------|
D|---------|-----------------------|---------|--------------------|
A|---------|-------------------6-5-|---------|--------------------|
E|-6h8-8-8-|-6-8-6-8-9-8-6-8-6-----|-6h8-8-8-|-6-8-6-8-9-8-6------|
B|---------|-----------------------|---------|---------------7///-|

Well i have to say listening this is my least Favorite song, but its another one thats 
actually close to being a song cause theres more than one rift and this song is a tad 
fast but fun, so here be dry and spermless like a girl with frustration enjoi

MetallicaDMRTL

                            \m/Metallica\m/
Suggest correction
Creating personal tab
Creating personal tab
You can edit any tab online and save it as your Personal.

You can edit, replace or remove any tab part or add personal notes – all changes will be seen only by you.

Personal tabs can be accessed anytime from any device, even offline.
Learn more »
Give kudos to tab author, rate the tab!
1 2 3 4 5
comments
print report bad tab
guest
You may want to rate the tab now too:
select rating
Wanna post a correction for this tab? Suggest correction