Oops, an error
Loading. Please wait.

Junior Dad bass

383 views 3 this week
no commentswrite comment
1 2 3 4 5
2 more votes to show rating
add to favorites
×
Save as Personal and add changes to this tab that will be seen only by you. Learn more ›
×
You can save this tab as Personal to edit and correct it or add notes. All changes will be seen only by you. Learn more »
launch autoscroll
font size
0
reset
guitar tuner
edit
Autoscroll
slow
fast
+/-
esc
set tempo
stop
-------------------------------------------------------------------------------
                             Junior Dad - Lou Reed And Metallica
-------------------------------------------------------------------------------
Tabbed by: MetallicaDMRTL

Tuning: Standard BEADG

Well thhe longest song ever is here folks, the parts u play isnt that long but the
freakin random noises take up like 14mins so anyways here is junior dad:

0:54
G|---------------|---------------|---------------|---------------|
D|---------------|---------------|---------------|---------------|
A|-3-3-3-3-3h5-3-|-3-3-3-3-3h5-3-|-3-3-3-3-3h5-3-|-3-3-3-3-------| x10
E|---------------|---------------|---------------|----------3-3\-|
B|---------------|---------------|---------------|---------------|

G|----------------|----------------|----------------|---------------|
D|----------------|----------------|----------------|---------------|
A|-3-3-3-3-3h5-3\-|-3-3-3-3-3h5-3\-|-3-3-3-3-3h5-3\-|-3-3-3-3-------| x15
E|----------------|----------------|----------------|----------3-3\-|
B|----------------|----------------|----------------|---------------|

G|-----------------|-----------------|-----------------|--------|
D|-----------------|-----------------|-----------------|--------|
A|-3-3-3-3-3h5-(3)-|-3-3-3-3-3h5-(3)-|-3-3-3-3-3h5-(3)-|--------| x5
E|-----------------|-----------------|-----------------|---3-3\-|
B|-----------------|-----------------|-----------------|--------|

G|---------------|---------------|---------------|---------------|
D|---------------|---------------|---------------|---------------|
A|-3-3-3-3-3h5-3-|-3-3-3-3-3h5-3-|-3-3-3-3-3h5-3-|-3-3-3-3-------| x4
E|---------------|---------------|---------------|----------3-3\-|
B|---------------|---------------|---------------|---------------|

Break and a PSA from Lou :p

G|---------------|---------------|---------------|---------------|
D|---------------|---------------|---------------|---------------|
A|-3-3-3-3-3h5-3-|-3-3-3-3-3h5-3-|-3-3-3-3-3h5-3-|-3-3-3-3-------| x12
E|---------------|---------------|---------------|----------3-3\-|
B|---------------|---------------|---------------|---------------|

G|----------------|----------------|----------------|---------------|
D|----------------|----------------|----------------|---------------|
A|-3-3-3-3-3h5-3\-|-3-3-3-3-3h5-3\-|-3-3-3-3-3h5-3\-|-3-3-3-3-------| x9
E|----------------|----------------|----------------|----------3-3\-|
B|----------------|----------------|----------------|---------------|

G|---------------|---------------|---------------|---------------|
D|---------------|---------------|---------------|---------------|
A|-3-3-3-3-3h5-3-|-3-3-3-3-3h5-3-|-3-3-3-3-3h5-3-|-3-3-3-3-------| x4
E|---------------|---------------|---------------|----------3-3\-|
B|---------------|---------------|---------------|---------------|

honestly this song just feels like forever long trujillo really plays 1 riff and adds a
type of fill, if u will, to it 3 different ways and thats junior dad the biggest
dissapointment lol (thats some lyrics right there)
so ill be makin more lulu and hopefuly the album soon, PEACE

btw here theres 2 things u can do but i cant tell what so heres the versions

G|----------------|
D|----------------|
A|-3-3-3-3--------|
E|----------3-3b\-|
B|----------------|

        or

G|-------------------|
D|-------------------|
A|-3-3-3-3--8h10-5h7-|
E|-------------------|
B|-------------------|

and thats for everytime so theres 3 different ways u can play the 4th bar, so u pick
what sounds right, i personally think the bend sounds good but these are optional for
sometime or everytime, i guess what ever makes this 20min song funner, go ahead


MetalicaDMRTL

                             \m/Metallica\m/

            
            
Suggest correction
Creating personal tab
Creating personal tab
You can edit any tab online and save it as your Personal.

You can edit, replace or remove any tab part or add personal notes – all changes will be seen only by you.

Personal tabs can be accessed anytime from any device, even offline.
Learn more »
Give kudos to tab author, rate the tab!
1 2 3 4 5
comments
print report bad tab
guest
You may want to rate the tab now too:
select rating
Wanna post a correction for this tab? Suggest correction