Oops, an error
Loading. Please wait.

Junior Dad tab

version 2
version 2

Whole song

626 views 9 this week
no commentswrite comment
1 2 3 4 5
2 more votes to show rating
add to favorites
×
Save as Personal and add changes to this tab that will be seen only by you. Learn more ›
×
You can save this tab as Personal to edit and correct it or add notes. All changes will be seen only by you. Learn more »
launch autoscroll
font size
0
reset
how to read this tab
guitar tuner
edit
Autoscroll
slow
fast
+/-
esc
set tempo
stop
-----------------------------------------------------------------------------
                             Junior Dad - Lou Reed and Metallica
-----------------------------------------------------------------------------
Tabbed by: xxxTH1RT3ENxxx
E-mail: thevolume9@gmail.com

Tuning: Drop C CGCFAD

This is a very good song. Fun to play.

Riff 1
D|--------------------------------------------------------------------------|
A|--------------------------------------------------------------------------|
F|-----------------------------------------------------------------X4-------|
C|---------------------------------------------------7----------------------|
G|---5-5-5-5h7p5---5-5-5-5h7p5---5-5-5-5h7p5---5-4-0---4-0-7-7--------------|
C|-0-------------0-------------0-------------0-------------7-7--------------|

Next two riffs are a little different. These are played over a very quiet first riff.

riff 2
D|--------------------------------------------------------------------------|
A|--------------------------------------------------------------------------|
F|-----------------------------------------------------------------X1-------|
C|------------------------------------7-------------------------------------|
G|-5-5-5-5h7---5-5-5h7---5-5-55-5-4-0---4-0-7-7-----------------------------|
C|-0---------0---------0--------------------7-7-----------------------------|

riff 3
D|--------------------------------------------------------------------------|
A|--------------------------------------------------------------------------|
F|-----------------------------------------------------------------X1-------|
C|--------------------------------------------------------------------------|
G|---5-5-5-5-7/9-9/10--9-5-5-4----7-7---------------------------------------|
C|-0------------------------------7-7---------------------------------------|

Return to Riff 1 play it X3... Its also being played quietly under this...

riff 4
D|--------------------------------------------------------------------------|
A|--------------------------------------------------------------------------|
F|-9/6-6/7-7--7-9-11-9-12--9/6-6/7------------------------------------------|
C|---------------------------------------7----------------------------------|
G|-7/4-4/5-5--5-7-9--7-10--7/4-4/5-5-4-0---4-0-7-7--------------------------|
C|---------------------------------------------7-7--------------------------|

riff 5
D|--------------------------------------------------------------------------|
A|---------------7-9-11-9-12--7-6-------7----7-9-11-9-12-7-6----------------|
F|--------------------------------------------------------------------------|
C|---------------5-7-9--7-10--5-4-7-----5----5-7-9--7-10-5-4-7--------------|
G|---5-5-5-5h7p5--------------------7-7-------------------------------------|
C|-0------------------------------7-7-7----------------------7--------------|

Now distortion

riff 1 dist
D|--------------------------------------------------------------------------|
A|--------------------------------------------------------------------------|
F|------------------------------------------7-------------------------------|
C|------------------------------------------7-------------------------------|
G|---5h7p5-5-5-5--5h7p5-5-5-5-7-5-4-4---7-7-5-------------------------------|
C|-0----------------------------------7-7-7---------------------------------|

riff 2 dist
D|--------------------------------------------------------------------------|
A|--------------------------------------------------------------------------|
F|--------------------------------------------------------------------------|
C|--------------------------------------------------------------------------|
G|---5-5-5-5-5/7-9-7/10--7-4----7-7-----------------------------------------|
C|-0-------------------------7--7-7-----------------------------------------|

riff 3 dist
D|--------------------------------------------------------------------------|
A|---------------7-9-11-9-12--7-6-------7----7-9-11-9-12-7-6----------------|
F|--------------------------------------------------------------------------|
C|---------------5-7-9--7-10--5-4-7-----5----5-7-9--7-10-5-4-7--------------|
G|----------------------------------7-7------------------------7-7----------|
C|--------------------------------7-7-7----------------------7-7-7----------|

Just do those last three a couple times in order then next is clean

D|--------------------------------------------------------------------------|
A|--------------------------------------------------------------------------|
F|--------------------------------------------------------------------------|
C|------------------------------------7-------------------------------------|
G|-5-5-5-5h7---5-5-5h7---5-5-55-5-4-0---4-0-7-7-----------------------------|
C|-0---------0---------0--------------------7-7-----------------------------|

D|--------------------------------------------------------------------------|
A|--------------------------------------------------------------------------|
F|--------------------------------------------------------------------------|
C|--------------------------------------------------------------------------|
G|---5-5-5-5-7/9-9/10--9-5-5-4----7-7---------------------------------------|
C|-0------------------------------7-7---------------------------------------|

Noises and Lou
Then main riff X4
then riff 2
riff 3
riff 2
riff 3
riff 4
riff 5
back to distortion riffs 1 and 2 X2
then distortion riff 3
then back to clean riff 1
play it out then its noises again

Dont understand why theres noises for 10 minutes but thats Lou Reed for you.
Hope you like this tab.

************************************

| /   slide up
| \   slide down
| h   hammer-on
| p   pull-off
| ~   vibrato
| +   harmonic
| x   Mute note
| b   Bend
| pb  Pre-bend
| br  Bend release
| pbr Pre-bend release
| brb Bend release bend

************************************
Suggest correction
Creating personal tab
Creating personal tab
You can edit any tab online and save it as your Personal.

You can edit, replace or remove any tab part or add personal notes – all changes will be seen only by you.

Personal tabs can be accessed anytime from any device, even offline.
Learn more »
Give kudos to tab author, rate the tab!
1 2 3 4 5
comments
print report bad tab
guest
You may want to rate the tab now too:
select rating
Wanna post a correction for this tab? Suggest correction