Oops, an error
Loading. Please wait.

Hungry bass

378 views 1 this week
no commentswrite comment
1 2 3 4 5
2 more votes to show rating
add to favorites
×
Save as Personal and add changes to this tab that will be seen only by you. Learn more ›
×
You can save this tab as Personal to edit and correct it or add notes. All changes will be seen only by you. Learn more »
launch autoscroll
font size
0
reset
guitar tuner
edit
Autoscroll
slow
fast
+/-
esc
set tempo
stop
Author
Difficulty
Artist:Loud 'N' Nasty
Song:Hungry
Album:Teaser Teaser
Bassist:Rob Nasty
Tabber:Dev Fuld

I recieved a request for this song. And I must say, it is an awesome song, as well as an 
band. I tabbed it by listening to the video on youtube so hopefully, it worked.

Key:
x = Times a number
* = Let it ring

Intro
Gb:---|R|---------|----------------------------------------|
Db:---|E|---------|----------------------------------------|
Ab:---|S|---------|4-6-7-6--4-2-1-----9x3-7x5-----4-4-7-6x4|
Eb:4-4|T|4-4-4-4-4|---------------4x8---------4x8----------|

Gb:------------------------|
Db:------------------------|
Ab:----9x3-7x5-----4-6-7-6*|
Eb:4x8---------4x8---------|

Verse
Gb:---------------------------|---------------------------------|
Db:---------------------------|---------------------------------|
Ab:------------------------2-1|------------------------2-1------|
Eb:4x32-0x12-2-2-4x9-0-2-4----|4x32-0-12-2-2-4x9-0-2-4-----4-2-2|

Pre-Chorus
Gb:------|---------------|
Db:------|---------------|
Ab:----6*|------2-1------|
Eb:2*----|0-2-4-----4-2-4|

Chorus
Gb:--------------------------------------------------|
Db:--------------------------------------------------|
Ab:----9x3-7x5-----4-4-7-6x4-----9x3-7x5-----4-6-7-6*|
Eb:4x8---------4x8-----------4x8---------4x8---------|

Verse

Pre-Chorus

Chorus 2
Gb:---------------------------------------------|---|
Db:---------------------------------------------|---|
Ab:----9x3-7x5-----4-4-7-6x4-----9x3-7x5-----6-6|---|
Eb:4x8---------4x8-----------4x8---------4x8----|4-4|

Break

Bridge
Gb:-------|R|---|R|---|R|---|R|-----------------------|
Db:-------|E|---|E|---|E|---|E|-----------------------|
Ab:2------|S|---|S|---|S|---|S|---------2-------------|
Eb:--2-4-4|T|4-4|T|4-4|T|4-4|T|0-2-4x28---2-4x28-0-2-4|

Solo
Gb:--------------------------|
Db:--------------------------|
Ab:-----2--------------------|
Eb:4x28---2-4x28-0-2-4*-2*-0*|

After Solo
Gb:---|R|---------|--------------|
Db:---|E|---------|--------------|
Ab:---|S|---------|4-6-7-6--4-2-1|
Eb:4-4|T|4-4-4-4-4|--------------|

End (Fade out)
Gb:---------------------------------------------------|
Db:---------------------------------------------------|
Ab:----9x3-7x5-----4-4-7-6x4-----9x3-7x5-----4-4-7-6x4|
Eb:4x8---------4x8-----------4x8---------4x8----------|

That's it! I'm am completely positive that this tab is correct. I put it in correct 
and in correct order. So enjoy. Any questions or comments, e-mail me at rocklvson@yahoo.com

            
            
Suggest correction
Creating personal tab
Creating personal tab
You can edit any tab online and save it as your Personal.

You can edit, replace or remove any tab part or add personal notes – all changes will be seen only by you.

Personal tabs can be accessed anytime from any device, even offline.
Learn more »
Give kudos to tab author, rate the tab!
1 2 3 4 5
comments
print report bad tab
guest
You may want to rate the tab now too:
select rating
Wanna post a correction for this tab? Suggest correction