Oops, an error
Loading. Please wait.

Ares Lament Bass Tab

version 1
version 1

Whole song

Interactive

880 views 3 this week
no commentswrite comment
1 2 3 4 5
please rate
add to favorites
launch autoscroll
font size
0
reset
guitar tuner
Autoscroll
slow
fast
+/-
esc
set tempo
stop
Help us to improve Ultimate-Guitar.com Take our survey!
×
Author
Difficulty
novice
                                  Ares Lament                                   


                                                                        Loudness
Bass



             H        H           H        H           H        H         
G||-------|--------------------|--------------------|--------------------|
D||-------|--4--------6--------|--7-----------------|--4--------6--------|
A||-------|--------------------|-----------4--------|--------------------|
E||-------|--------------------|--------------------|--------------------|


  H          H           Q    E.  S S S Q    E     Q    E.  S S S Q    E   
----------------------|-------------------------|-------------------------|
--7--------/11--------|-------------------------|-------------------------|
----------------------|----------------------4--|--5----L-----5---5-------|
----------------------|--2----L---0-2---2-------|-----------5----------2--|


  Q    E.  S S S Q    E     Q    E.  S S S Q    E     Q    E.  S S S Q    E   
-------------------------|-------------------------|-------------------------|
-----------2-------------|-------------------------|-------------------------|
----------------------2--|--4----4-----4---4----4--|----------------------4--|
--0----0-----0---0-------|-----------4-------------|--2----L---0-2---2-------|


  Q    E.  S S S Q.        E  E  E  E  E  E  E  E     W                 
------------------------|-----------4--------------|-------------------|
------------------------|--------4-----------4--6--|-------------------|
--5----L-----5---5------|--4--5--------4--5--------|-------------------|
-----------5------------|--------------------------|--2----------------|


    Q    E.  S S S Q    E     Q    E.  S S S Q.        H        S S Q.      
|--------------------------|------------------------|----------------------|
|*-------------------------|------------------------|----------------------|
|*----------------------2--|--4----L-----4---4------|--2--------2---2------|
|---2----L---0-2---2-------|-----------4------------|----------------------|


  H        H           Q    E.  S S S Q    E     Q    E.  S S S Q.      
--------------------|-------------------------|------------------------|
--------------------|-------------------------|------------------------|
--------------------|----------------------2--|--4----L-----4---4------|
--5--------4--------|--2----L---0-2---2-------|-----------4------------|


  Q    S S E  Q    S S E     W                   Q    E.  S S S E  S S S S  
---------7-----------9----|-------------------|----------------------------|
-------7---7-------9---9--|-------------------|----------------------------|
--5-----------7-----------|-------------------|--0----0-----0---0--0---2-3-|
--------------------------|--2----------------|-----------0---0------0-----|


  Q    E.  S S S S S S S S S    Q    E.  S S S Q    S S  
-----------------4-5-6---4-6-|--------------------------|
---------------6-------6-----|--------------------------|
--4----4-----4---------------|--5----L-----5---5----4-5-|
-----------4-----------------|-----------5--------------|


  E  E  E  E  S S S S S S E      Q    E.  S E  S S S S S S  
--------------9-9---9-9-7-----|----------------------------|
-----------9--------------9\--|----------------------------|
--7-----7---------------------|--0----0-----0----0-L---2-3-|
-----0------------------------|-----------0----------0-----|


  Q    E.  S S S Q    S S    Q    S S E  Q    S S E   
--------------------------|---------7-----------9----|
--------------------------|-------7---7-------9---9--|
--4----L-----4---4----3-4-|--5-----------7-----------|
-----------4--------------|--------------------------|


  E  E  E  E  E  E  E  E     E  E  E  E  E  E  S S S S  
--------------------------|----------------------------|
--------------------------|--4--4--4--4--4--4--4-4-4-4-|
--------------------------|----------------------------|
--2--2--2--2--2--2--2--2--|----------------------------|


  Q    E  E  Q    E  E     Q    E  E  Q    E  S S    Q    E.  S S S E  Q     
------------------------|-------------------------|-------------------------|
------------------------|-------------------------|-------------------------|
------------------------|-------------6---------6-|--5----5---5---4-4--4----|
--2-------2--1-------1--|--0-------0----------7---|-------------------------|


  Q    E.  S S S E  Q       Q    E  E  Q    E  E     Q    E  E  Q    E  S S  
-------------------------|------------------------|-------------------------|
-------------------------|------------------------|-------------------------|
--5----5---5---4-4--4----|------------------------|-------------6---------6-|
-------------------------|--2-------2--1-------1--|--0-------0----------7---|


  Q    E.  S S S E  Q       E.  S S S E  S S E  Q       Q    E  E  Q    Q     
-------------------------|--------7------------------|-----------------------|
-------------------------|------7---7----------------|-----------------------|
--5----5---5---4-4--4----|--5---------5----4-4--4----|------------------4----|
-------------------------|---------------------------|--2----2--4--5---------|


  E  S  S E  S  S E  E   Q       Q    E  E  Q    Q     
------------------------------|-----------------------|
------------------------------|-----------------------|
-----5p-4-5--7p-5-7-----------|------------------4----|
---------------------5\--0----|--2----2--4--5---------|


                                   NH    NH     NH                         
  E  S  S E  S  S E  E   Q         E.    S E    E  H                       
------------------------------|------------------------------||-----------|
------------------------------|-----------------------------*||-----------|
-----5p-4-5--7p-5-7-----------|--<>7----------<>7--L--------*||-----------|
---------------------5\--0----|--------<>7-L-----------------||-----------|


-----------|-----------|-----------|-----------|-----------|-----------|
-----------|-----------|-----------|-----------|-----------|-----------|
-----------|-----------|-----------|-----------|-----------|-----------|
-----------|-----------|-----------|-----------|-----------|-----------|


              Q    Q    S S E  E  S  S    Q    Q    S S E  E  S  S  
-----------|---------------------------|---------------------------|
-----------|-------4-----------4-------|-------4-----------4-------|
-----------|----------------------2h-4-|----------------------2h-4-|
-----------|--2---------2---2----------|--2---------2---2----------|


  Q    Q    S S E  E  S  S    Q    Q    S S E  E  S  S  
-------7-----------7-------|-------7-----------7-------|
----------------------5h-7-|----------------------5h-7-|
--5---------5---5----------|--5---------5---5----------|
---------------------------|---------------------------|


  Q    Q    S S E  E  S  S    Q    Q    S S E  E  S  S  
---------------------------|---------------------------|
-------2-----------2-------|-------2-----------2-------|
----------------------0h-2-|----------------------0h-2-|
--0---------0---0----------|--0---------0---0----------|


  Q    Q    S S E  E  S  S    Q    Q    S S E  E  S  S  
---------------------------|---------------------------|
-------4-----------4-------|-------4-----------4-------|
----------------------2h-4-|----------------------2h-4-|
--2---------2---2----------|--2---------2---2----------|


  Q    Q    S S E  E  S  S    Q    Q    S S E  E  S  S  
---------------------------|---------------------------|
-------4-----------4-------|-------4-----------4-------|
----------------------2h-4-|----------------------2h-4-|
--2---------2---2----------|--2---------2---2----------|


  Q    Q    S S E  E  S  S    Q    Q    S S E  E  S  S  
-------7-----------7-------|-------7-----------7-------|
----------------------5h-7-|----------------------5h-7-|
--5---------5---5----------|--5---------5---5----------|
---------------------------|---------------------------|


  Q    Q    S S E  E  S  S    Q    Q    S S E  E  S  S  
---------------------------|---------------------------|
-------2-----------2-------|-------2-----------2-------|
----------------------0h-2-|----------------------0h-2-|
--0---------0---0----------|--0---------0---0----------|


  Q    Q    S S E  E  S  S    Q    Q    S S E  E  S  S  
---------------------------|---------------------------|
-------4-----------4-------|-------4-----------4-------|
----------------------2h-4-|----------------------2h-4-|
--2---------2---2----------|--2---------2---2----------|


  Q    Q    S S E  E  S  S    Q    Q    S S E  E  S  S  
---------------------------|---------------------------|
-------4-----------4-------|-------4-----------4-------|
----------------------2h-4-|----------------------2h-4-|
--2---------2---2----------|--2---------2---2----------|


  Q    Q    S S E  E  S  S    Q    Q    S S E  E  S  S  
-------7-----------7-------|-------7-----------7-------|
----------------------5h-7-|----------------------5h-7-|
--5---------5---5----------|--5---------5---5----------|
---------------------------|---------------------------|


  Q    Q    S S E  E  S  S    Q    Q    S S E  E  S  S  
---------------------------|---------------------------|
-------2-----------2-------|-------2-----------2-------|
----------------------0h-2-|----------------------0h-2-|
--0---------0---0----------|--0---------0---0----------|


  Q    Q    S S E  E  S  S    Q    Q    S S E  E  S  S  
---------------------------|---------------------------|
-------4-----------4-------|-------4-----------4-------|
----------------------2h-4-|----------------------2h-4-|
--2---------2---2----------|--2---------2---2----------|


  Q    Q    S S E  E  S  S    Q    Q    S S E  E  S  S  
---------------------------|---------------------------|
-------4-----------4-------|-------4-----------4-------|
----------------------2h-4-|----------------------2h-4-|
--2---------2---2----------|--2---------2---2----------|


  Q    Q    S S E  E  S  S    Q    Q    S S E  E  S  S  
-------7-----------7-------|-------7-----------7-------|
----------------------5h-7-|----------------------5h-7-|
--5---------5---5----------|--5---------5---5----------|
---------------------------|---------------------------|


  Q    Q    S S E  E  S  S    Q    Q    S S E  E  S  S  
---------------------------|---------------------------|
-------2-----------2-------|-------2-----------2-------|
----------------------0h-2-|----------------------0h-2-|
--0---------0---0----------|--0---------0---0----------|


  Q    Q    S S E  E  S  S    Q    Q    S S E  E  S  S        
---------------------------|---------------------------|----||
-------4-----------4-------|-------4-----------4-------|----||
----------------------2h-4-|----------------------2h-4-|----||
--2---------2---2----------|--2---------2---2----------|----||




Duration Legend
---------------
W - whole
H - half
Q - quarter
E - 8th
S - 16th
T - 32nd
X - 64th
. - note dotted
|-n-|  - n-tuplets


Tablature Legend
----------------
L - tied note
x - dead note
g - grace note
(n) - ghost note
> - accentuded note
NH - natural harmonic
AH - artificial harmonic
TH - tapped harmonic
SH - semi harmonic
PH - pitch harmonic
h - hammer on
p - pull off
b - bend
br - bendRelease
pb - preBend
pbr - preBendRelease
brb - bendReleaseBend
\n/ - tremolo bar dip
\n - tremolo bar dive
-/n - tremolo bar Release up
/n\ - tremolo bar inverted dip
/n - tremolo bar return
-\n - tremolo bar Release down
S - shift slide
s - legato slide
/ -  slide into from below or out of upwards
\ -  slide into from above or out of downwards
~ - vibrato
W - wide vibrato
tr - trill
TP - tremolo picking
T - tapping
S - slap
P - pop
< - fade in
^ - brush up
v - brush down
Suggest correction
Give kudos to tab author, rate the tab!
1 2 3 4 5
comments
print report bad tab
guest
You may want to rate the tab now too:
select rating
Please do not post tabs as comments. Select "correction" instead!