Oops, an error
Loading. Please wait.

Crazy Nights Tab

version 1
version 1

Intro

Whole song

2,922 views 9 this week
no commentswrite comment
1 2 3 4 5
excellent!
x 3
add to favorites
launch autoscroll
font size
0
reset
how to read this tab
guitar tuner
Tab Pro tools
  • play this tab
  • loop segment
  • change instrument
  • show fretboard
  • metronome
Autoscroll
slow
fast
+/-
esc
set tempo
stop
Contributor
Difficulty
novice
I am overseas and don't have a guitar with me so I'm doing these tabs from ear/memory
and wont be able to do the solo until I come home.  Hope no one is too pissed off.  Good song.




Into
--------------------------------------------------------|   This is in the key
--------------------------------------------------------|   of E.  Repeat till
-2-------4-------------------2-------4------------------|   the verse starts.
-2-------4--------2-4-5-4-2--2-------4--------2-4-5-4-2-|
-0-------2--------2-4-5-4-2--0-------2--------2-4-5-4-2-|
---2-2-2---2-2-2--0-2-3-2-0----2-2-2---2-2-2--0-2-3-2-0-|

Verse 1
-------------------------------------------------------|
-------------------------------------------------------|
-2---------------2---------------2-------4-------2---4-| X2
-2-------2-------2-------2-------2-------4-------2-2-4-|
-0-------2-------0-------2-------0-------2-------0-2-2-|
---2-2-2-0-2-2-2---2-2-2-0-2-2-2---2-2-2---2-2-2---0---|

----------------------------------------------------------------|
----------------------------------------------------------------|
-2-4-2-4-2----2-------4-----------------2------4----------------|
-2-4-2-4-2-6--2-------4-------2-4-5-4-2-2------4------2-4-5-4-2-|
-0-2-0-2-0-6--0-------2-------2-4-5-4-2-0------2------2-4-5-4-2-|
-----------4----2-2-2---2-2-2-0-2-3-2-0---2-2-2-2-2-2-0-2-3-2-0-|

Pre Chorus                   Chorus
---------------------------  ----------------------------------------------|
---------------------------  ----------------------------------------------|
-2---2-4---2---2---2-4---2-  ----------------------------------------------|
-2-4-2-4-4-2---2-4-2-4-4-2-  --------2----------------------2--------------|
---4-----4-------4-----4---  -0-0-2-4-0-2-4-5-4-2-0--0-0-2-4-0-2-4-5-4-2-0-|
---------------------------  ----------------------0-----------------------|


Repeat the intro four times.


Verse 2 is just a little bit shorter than verse 1, then it goes into the pre chorus and 
chorus again.


Bit before the solo (Where all the "Hey's" are shouted)
---------------------------------------       --------|
---------------------------------------       --------|
-----------2~-----------4~-----------7~       -2---4--|
-4-4-2-4-2-2~-4-4-2-4-2-4~-4-4-2-4-2-7~ X2    -2-2-4--|
-4-4-2-4-2-0~-4-4-2-4-2-2~-4-4-2-4-2-5~       -0-2-2--|
-2-2-0-2-0----2-2-0-2-0----2-2-0-2-0---       ---0----|

Rythm played during solo
------------------------------------------------------|
------------------------------------------------------|
-2-------------2-------------2------------------------|
-2------2------2------2------2------2-------2-4-5-4-2-| X2
-0------2------0------2------0------2-------2-4-5-4-2-|
--2-2-2-0-2-2-2-2-2-2-0-2-2-2-2-2-2-0-2-2-2-0-2-3-2-0-|

------------------------------------------------|
------------------------------------------------|
-2-----4----------------2-----4-----------------|
-0-----2------2-4-5-4-2-0-----2------2-4-5-4-2--|
--2-2-2-2-2-2-0-2-3-2-0--2-2-2-2-2-2-0-2-3-2-0--|
------------------------------------------------|

-------------------------------------------------------|
-------------------------------------------------------|
-2-------------2-------------2-------------------------|
-2------2------2------2------2------2-------2-4-5-4-2--|
-0------2------0------2------0------2-------2-4-5-4-2--|
--2-2-2-0-2-2-2-2-2-2-0-2-2-2-2-2-2-0-2-2-2-0-2-3-2-0--|

Then it goes back to the Chorus part

Outro Part
---------------------------------------------------|
---------------------------------------------------|
-2-----4-------------------2-----4-----------------|   Fades away
-2-----4------2-4-5-4-2----2-----4------2-4-5-4-2--|
-0-----2------2-4-5-4-2----0-----2------2-4-5-4-2--|
--2-2-2-2-2-2-0-2-3-2-0-----2-2-2-2-2-2-0-2-3-2-0--|
comments
We did not receive enough feedback on this tab! Please rate:
print report bad tab
1 2 3 4 5
I want to post or [tab]
guest
You may want to rate the tab now too:
select rating
Please do not post tabs as comments. Select "correction" instead!