Oops, an error
Loading. Please wait.

Let It Go Bass Tab

version 1
version 1

Whole song

Interactive

1,231 views 3 this week
no commentswrite comment
1 2 3 4 5
please rate
add to favorites
launch autoscroll
font size
0
reset
guitar tuner
Autoscroll
slow
fast
+/-
esc
set tempo
stop
Help us to improve Ultimate-Guitar.com Take our survey!
×
Contributor
standard tuning
intro
(bass fills in with the drums)

come in on:
G|-------------|
D|-------------|
A|---1---------|
E|1-----1------|


G|--------------------------------------------|
D|----------------1--1---1--1----------1--1---|
A|---1----------------------------------------|
E|1-----1--1-1-1----------------1-1-1---------|

G|--------------------------------------------|
D|----------------1--1---1--1----------1--1---|
A|---1----------------------------------------|
E|1-----1--1-1-1----------------1-1-1---------|

G|--------------------------|
D|----------------------5~--|
A|---1-----1~-------1-3-----|
E|1-----1-----1~------------|


verse (play 2x)
G|----------------------------------------------------------|
D|--------------------------1/3-\1--------------------------|
A|----------------------------------------------------------|
E|1-1-1-1-1-1-1-1-1-1-1-1-1--------1-1-1-1-1-1-1-1-1-1-1-1--|

G|----------------------------------------------------------|  
D|1-1-1-1-1-1-1-1-1-1-1-1-1-------------------------------5-|
A|----------------------------------------------------1-3---|
E|--------------------------1-1-1-1-1-1-1-1-1-1-1-1-1-------|



pre chorus
G|---------------------------------------------------------------|*this is not the number 13.
D|----------------------------------------5~-------5~-----5------| It is a 1 and a 3.
A|------------------------------------1-3------1-3------13*------|
E|3--3-3-3-3-3-3-3--5--5-5-5-5-5-5--1--------1--------1----------|   play this riff 2x

G|--------------------------------------------------|
D|--------------------------------------------------|
A|-------------------------------------1--1--1-1-1--|
E|3--3--3-3-3-5--5--5-5-5--3--3--3-3-3--------------|


G|--------------------------------------------------|
D|--------------------------------------------------|
A|-------------------------------------3-3-3-3------|
E|3--3--3-3-3-5--5--5-5-5--3--3--3-3-3--------------|



chorus
G|----------------------------------------------|
D|-------1--1----1--1----------1--1-------------|  
A|---------------------------------------1------|
E|1-1-1-----------------1-1-1---------1-----1---|   play this riff 2x


G|-------------------------|
D|---------------------5~--|
A|---1-----1~------1-3-----|
E|1-----1-----1~-----------|


verse (play 2x)
G|----------------------------------------------------------|
D|--------------------------1/3-\1--------------------------|
A|----------------------------------------------------------|
E|1-1-1-1-1-1-1-1-1-1-1-1-1--------1-1-1-1-1-1-1-1-1-1-1-1--|

G|----------------------------------------------------------|  
D|1-1-1-1-1-1-1-1-1-1-1-1-1-------------------------------5-|
A|----------------------------------------------------1-3---|
E|--------------------------1-1-1-1-1-1-1-1-1-1-1-1-1-------|



pre chorus
G|---------------------------------------------------------------|*this is not the number 13.
D|----------------------------------------5~-------5~-----5------| It is a 1 and a 3.
A|------------------------------------1-3------1-3------13*------|
E|3--3-3-3-3-3-3-3--5--5-5-5-5-5-5--1--------1--------1----------|   play this riff 2x

G|--------------------------------------------------|
D|--------------------------------------------------|
A|-------------------------------------1--1--1-1-1--|
E|3--3--3-3-3-5--5--5-5-5--3--3--3-3-3--------------|


G|--------------------------------------------------|
D|--------------------------------------------------|
A|-------------------------------------3-3-3-3------|
E|3--3--3-3-3-5--5--5-5-5--3--3--3-3-3--------------|


chorus
G|----------------------------------------------|
D|-------1--1----1--1----------1--1-------------|  
A|---------------------------------------1------|
E|1-1-1-----------------1-1-1---------1-----1---|   play this riff 2x


G|---------|
D|---------|
A|---1-----|
E|1-----1--|


guitar solo
G|---------------------------------------------------------------|*this is not the number 13.
D|----------------------------------------5~-------5~-----5------| It is a 1 and a 3.
A|------------------------------------1-3------1-3------13*------|
E|3--3-3-3-3-3-3-3--5--5-5-5-5-5-5--1--------1--------1----------|   play this riff 2x

G|--------------------------------------------------|
D|--------------------------------------------------|
A|-------------------------------------1--1--1-1-1--|
E|3--3--3-3-3-5--5--5-5-5--3--3--3-3-3--------------|


G|--------------------------------------------------|
D|--------------------------------------------------|
A|-------------------------------------3-3-3-3------|
E|3--3--3-3-3-5--5--5-5-5--3--3--3-3-3--------------|


G|------------------------------|
D|-------5---------5---------5--| The pattern for that riff is kinda 
A|---1-3-------1-3-------1-3----| confusing to tab, but it's easy to
E|1---------1---------1---------| figure out.


pre chorus
G|--------------------------------------------------|
D|--------------------------------------------------|
A|-------------------------------------1--1--1-1-1--|
E|3--3--3-3-3-5--5--5-5-5--3--3--3-3-3--------------|


G|--------------------------------------------------|
D|--------------------------------------------------|
A|-------------------------------------3-3-3-3------|
E|3--3--3-3-3-5--5--5-5-5--3--3--3-3-3--------------|



chorus
G|----------------------------------------------|
D|-------1--1----1--1----------1--1-------------|  
A|---------------------------------------1------|
E|1-1-1-----------------1-1-1---------1-----1---|   play this riff 3x

G|----------------------------------------------------------------|
D|-------1--1---1--1-------5--------5-------5--------5-1~~--1-1-5-|
A|---------------------1-3------1-3-----1-3------1-3--------------|
E|1-1-1--------------1--------1-------1--------1------------------|
Suggest correction What's this?
You can suggest a correction to this tab. Community and Mods will review your correction and vote to approve or reject it.
comments
We did not receive enough feedback on this tab! Please rate:
print report bad tab
1 2 3 4 5
I want to post or [tab]
guest
You may want to rate the tab now too:
select rating
Please do not post tabs as comments. Select "correction" instead!