Oops, an error
Loading. Please wait.

Let It Go Tab

version 1
version 1

Whole song

Interactive

4,138 views 24 this week
no commentswrite comment
1 2 3 4 5
please rate
add to favorites
launch autoscroll
font size
0
reset
how to read this tab
guitar tuner
Autoscroll
slow
fast
+/-
esc
set tempo
stop
Help us to improve Ultimate-Guitar.com Take our survey!
×
Author
Difficulty
intermediate
E|-------------------------------------------------------------------|
B|-10-10-9-----7---9-------7---9-------------------------------------|
G|-9--9--9-9-9-7-7-7-7-7-7-7-7-7-7-7---------------------------------|
D|-------------------------------------------------------------------|
A|-------------------------------------------------------------------|
E|-------------------------------------------------------------------|

|-------------------------------------|
|-10-10-9-----7---9-------------------|
|-9--9--9-9-9-7-7-7-7-7-7-----2-------|
|--------------------------2--2--2----|  4x
|--------------------------2--0--2----|
|--------------------------0-----0----|

|----------------------------------------------------------------|
|----------------------------------------------------------------|
|---2---2--------------------------------------------------------|
|-2-2-2-2-2----7-8-9---------------------------------------------|
|-2-0-2-0-2----5-6-7---------------------------------------------|
|-0---0---0----------0-0-0-0-0-0-0-0-0-0-0-0-0-0-0-0-0-----------|

|------------------------------------------------------|
|------------------------------------------------------|
|-----------------------------9---------9---------9----|
|-9---------------------7-----7----7----7-----7---7----|
|-7---------------------5-5-5--5-5-5-5-5--5-5-5-5---5--|
|---0-0-0-0-0-0-0-0-0-0--------------------------------|

|------------------------------------------|
|------------------------------------------|
|------------------------------------------|
|-----6-----4-----7-----6---7-8-9----------|
|-----7-----5-----9-----7---5-6-7----------|
|-0-0---0-0---0-0---0-0---0----------------|

                
                I was the one who talked about the other man...

|-----------------------------------------------------|
|-------4------------7--------------------------------|
|-----6---6--------7---7------------------------------|
|---6-------6----7-------7----------2-------2-------2-|
|-4------------5------------------2-------2-------2---|
|-----------------------------0-4-----0-4-----0-4-----|

                      I just can't take that chance...

|-------0-------0------0------0-------0------0----|
|-----0-------0------0------0---------------------|
|---2-------4------4------2------6--6------4------|
|-4-------6------6------4--------7-------6--------|
|--------------------------------7----------------|
|-------------------------------------------------|


|-------0-------0------0------0---------0----------|
|-----0-------0------0------0---------0------------|
|---2-------4------4------2------6--6--------------|
|-4-------6------6------4--------7-----------------|
|--------------------------------7-----------------|
|--------------------------------------------------|

                           

                           Solo (Rhythm)

|---------------------------------------------------------------------|
|----------------------4----------7-----------------------------------|
|-2-3---------------6---6-------7---7---------------------------------|
|-----4-2-1-------6-------6---7-------7--------2-------2-------2------|
|-----------4-2-4-----------5----------------2-------2-------2--------|
|----------------------------------------0-4-----0-4-----0-4----------|


|-------0-------0------0------0-------0------0----|
|-----0-------0------0------0---------------------|
|---2-------4------4------2------6--6------4------|
|-4-------6------6------4--------7-------6--------|
|--------------------------------7----------------|
|-------------------------------------------------|


|-------0-------0------0------0---------0----------|
|-----0-------0------0------0---------0------------|
|---2-------4------4------2------6--6--------------|
|-4-------6------6------4--------7-----------------|
|--------------------------------7-----------------|
|--------------------------------------------------|
Suggest correction
What's this?
You can suggest a correction to this tab. Community and Mods will review your correction and vote to approve or reject it.
comments
We did not receive enough feedback on this tab! Please rate:
print report bad tab
1 2 3 4 5
guest
You may want to rate the tab now too:
select rating
Please do not post tabs as comments. Select "correction" instead!