Oops, an error
Loading. Please wait.

What A Wonderful World Bass Tab

version 1
version 1
24,839 views 60 this week
3 commentsread comments
1 2 3 4 5
x 9
add to favorites
launch autoscroll
font size
0
reset
guitar tuner
Autoscroll
slow
fast
+/-
esc
set tempo
stop
Help us to improve Ultimate-Guitar.com Take our survey!
×
Difficulty
intermediate
What A Wonderful World
By Louis Armstrong
Tabbed By Big_M_Bass
Tuning Normal
Bass Tab

r=allow note to resonate

G|----------------------------------------------------------------|
D|-----5r--777-5r--3332-------------------------------------------|
A|--3-3-----------------3r-5553r--23--------------2-3-5-7r--------|
E|33---------------------------------3-3-3-3r--33-----------------|

G|----------------------------------------------------------------|
D|-----5r--777-5r--3332-------------------------------------------|
A|--3-3-----------------3r-5553r--23--------------2-3-5-7r--------|
E|33---------------------------------3-3-3-3r--33-----------------|

G|----------------|----------------|----------------|----------------|
D|---------------3|3-323-----------|----33-323-3-5-7|-77-5-2-777-5r--|
A|-75-5-55-3------|------75-5-55-3-|----------------|----------------|
E|-----------3-3--|----------------|3-3-------------|----------------|

G|----------------|----------------|----------------|----------------|
D|777-55r--5r-3r-0|----------------|----------------|----------------|
A|-------7--------|-------------2-3|5-7r------------|-----2-3-5-3r---|
E|----------------|-33333-3r--33---|-----3-3-3-3-5-3|r-33------------|

Lyrics

WHAT A WONDERFUL WORLD
(Louis Armstrong)

I see trees of green, red roses too
I see them bloom for me and you
And I think to myself, what a wonderful world

I see skies of blue and clouds of white
The bright blessed day, the dark sacred night
And I think to myself, what a wonderful world

The colours of the rainbow, so pretty in the sky
Are also on the faces of people going by
I see friends shakin' hands, sayin' "How do you do?"
They're really saying "I love you"

I hear babies cryin', I watch them grow
They'll learn much more than I'll ever know
And I think to myself, what a wonderful world
Yes, I think to myself, what a wonderful world

Oh yeah

Suggest correction
comments
print report bad tab
3 comments total.
0 reply
gtrhero93 71 Jul 08, 2007 12:09 PM

wow, dude. you posted the melody. not the bass

0 reply
Mads B 31 Oct 17, 2008 07:17 AM

gtrhero93: right! therefore 1 out of 5

0 reply
herp250 53 Aug 22, 2014 02:29 AM

Lack of accuracy. Clearly wrong.

guest
You may want to rate the tab now too:
select rating
Wanna post a correction for this tab? Suggest correction