Oops, an error
Loading. Please wait.

What A Wonderful World Bass

version 1
version 1
26,207 views 66 this week
3 commentsread comments
1 2 3 4 5
x 10
add to favorites
launch autoscroll
font size
0
reset
guitar tuner
×
Best way to learn
"What A Wonderful World"
Autoscroll
slow
fast
+/-
esc
set tempo
stop
Difficulty
intermediate
What A Wonderful World
By Louis Armstrong
Tabbed By Big_M_Bass
Tuning Normal
Bass Tab

G|---------------------------------------------------------------------------|
D|------5r--7-7-7-5r--3-3-3-2------------------------------------------------|
A|---3-3----------------------3r-5-5-5-3r--2-3---------------2-3-5-7r--------|
E|3-3------------------------------------------3-3-3-3r--3-3-----------------|

G|---------------------------------------------------------------------------|
D|------5r--7-7-7-5r--3-3-3-2------------------------------------------------|
A|---3-3----------------------3r-5-5-5-3r--2-3---------------2-3-5-7r--------|
E|3-3------------------------------------------3-3-3-3r--3-3-----------------|

G|------------------|--------------------|-------------------|-------------------|
D|-----------------3|3-3-2-3-------------|----3-3-3-2-3-3-5-7|-7-7-5-2-7-7-7-5r--|
A|-7-5-5-5-5-3------|--------7-5-5-5-5-3-|-------------------|-------------------|
E|-------------3-3--|--------------------|3-3----------------|-------------------|

G|--------------------|---------------------|----------------|-----------------|
D|7-7-7--5-5r--5r-3r-0|---------------------|----------------|-----------------|
A|-----------7--------|------------------2-3|5-7r------------|------2-3-5-3r---|
E|--------------------|-3-3-3-3-3-3r--3-3---|-----3-3-3-3-5-3|r-3-3------------|

Lyrics

WHAT A WONDERFUL WORLD
(Louis Armstrong)

I see trees of green, red roses too
I see them bloom for me and you
And I think to myself, what a wonderful world

I see skies of blue and clouds of white
The bright blessed day, the dark sacred night
And I think to myself, what a wonderful world

The colours of the rainbow, so pretty in the sky
Are also on the faces of people going by
I see friends shakin' hands, sayin' "How do you do?"
They're really saying "I love you"

I hear babies cryin', I watch them grow
They'll learn much more than I'll ever know
And I think to myself, what a wonderful world
Yes, I think to myself, what a wonderful world

Oh yeah

************************************

| r  Allow note to resonate

************************************
Suggest correction
comments
print report bad tab
3 comments total.
0 reply
gtrhero93 71 Jul 08, 2007 08:09 AM

wow, dude. you posted the melody. not the bass

0 reply
Mads B 31 Oct 17, 2008 03:17 AM

gtrhero93: right! therefore 1 out of 5

0 reply
herp250 53 Aug 21, 2014 10:29 PM

Lack of accuracy. Clearly wrong.

guest
You may want to rate the tab now too:
select rating
Wanna post a correction for this tab? Suggest correction