Oops, an error
Loading. Please wait.
We have Chord Pro version of What A Wonderful World.
It's the closest thing you can get to the original song and it has interactive parts. Check out the tab »
×

What A Wonderful World bass

version 3
version 3

Whole song

  • This tab reflects the following recording: https:/... Show more
34 views 3 this week
no commentswrite comment
1 2 3 4 5
2 more votes to show rating
add to favorites
×
Save as Personal and add changes to this tab that will be seen only by you. Learn more ›
×
You can save this tab as Personal to edit and correct it or add notes. All changes will be seen only by you. Learn more »
launch autoscroll
font size
0
reset
guitar tuner
edit
Autoscroll
slow
fast
+/-
esc
set tempo
stop
Tabbed by Stephen Michael W.

**I am referencing this recording, https://www.youtube.com/watch?v=A3yCcXgbKrE , to write 
this tab. It's quite difficult to clearly make out what the bassist is playing, though I believe 
this tab to be very close to the reference recording. This tab shows the important walk ups and 
downs, though I left out the very soft decoration inbetween certain notes, just to soft to 
clearly define and not neccesary movement to tab. "What a Wonderful World" is in 6/8.  


[Intro]
   1 2+a  1            a  1
g|------|-------|-------|-------
d|------|-------|-------|-------
a|------|-------|-------|-------
E|-1---1|-1-----|1-----1|-1-----

[Verse 1]                                        [Refrain]
   1+a2+a1  2  1  2  1                                                        2 + a
|-------|-----|-----|-----|-----|-----|-----|-----|-----|-----|-----|-----|---------|-----|-----|-----
|-------|-----|-----|-----|-----|-----|-----|0----|-----|-----|-----|-----|---3-1---|-----|-----|-----
|-------|0----|1----|0----|-----|-----|0----|-----|4----|4----|-----|3----|-------1-|2----|1----|3----
|--1----|-----|-----|-----|3----|1----|-----|-----|-----|-----|3----|-----|1--------|-----|-----|-----

 [Verse 2]                                        [Refrain]                1 2+a  1  +a  1   a 
|-------|-----|-----|-----|-----|-----|-----|-----|-----|-----|-----|-----|------|------|------|------
|-------|-----|-----|-----|-----|-----|-----|0----|-----|-----|-----|-----|------|3-----|3-----|------
|-------|0----|1----|0----|-----|-----|0----|-----|4----|4----|-----|3----|----1-|----1-|------|------
|--1----|-----|-----|-----|3----|1----|-----|-----|-----|-----|3----|-----|1-----|------|1---1-|1-----


 [Bridge] a           a      a       a          a  1 2 + a  1                    2 + a     + a 
 |---|------|----|------|------|-------|----|-----|--------|-----|-----|-----|---------|-------|------
 |---|------|----|------|------|-------|----|---2-|3---3-2-|0----|-----|0----|---------|0--0-2-|3-----
 |-5-|3---3-|3---|3---3-|3---3-|-------|3---|3----|--------|-----|3----|-----|3--0-1-3-|-------|------
 |---|------|----|------|------|1----3-|----|-----|--------|-----|-----|-----|---------|-------|------

  1  2 + a  1 + a 2 + a 
-|0--------|------------|
-|---2-----|------------|
-|-----0-2-|3-------0-3-|
-|---------|--0-1-3-----|

[Verse 3]                                        [Refrain]
 1                                                                        
|------|-----|-----|-----|-----|-----|-----|-----|-----|-----|-----|-----|-----|-----|-----|-----
|------|-----|-----|-----|-----|-----|-----|0----|-----|-----|-----|-----|-----|1----|0----|0----
|------|0----|1----|0----|-----|-----|0----|-----|4----|4----|-----|3----|-----|-----|-----|-----
|-1----|-----|-----|-----|3----|1----|-----|-----|-----|-----|3----|-----|1----|-----|-----|-----


[Outro]                             
 1      (hold)
|------|-----|-----|-----|-----
|------|-----|-----|-----|-----
|------|3----|-----|-----|-----
|-1----|-----|-----|-----|1----

            
            
Suggest correction
Creating personal tab
Creating personal tab
You can edit any tab online and save it as your Personal.

You can edit, replace or remove any tab part or add personal notes – all changes will be seen only by you.

Personal tabs can be accessed anytime from any device, even offline.
Learn more »
Give kudos to tab author, rate the tab!
1 2 3 4 5
comments
print report bad tab
guest
You may want to rate the tab now too:
select rating
Wanna post a correction for this tab? Suggest correction