Oops, an error
Loading. Please wait.
We have an official What A Wonderful World tab made by UG professional guitarists. Check out the tab »
×

What A Wonderful World tab

154 views 6 this week
no commentswrite comment
1 2 3 4 5
1 last vote to show rating
add to favorites
×
Save as Personal and add changes to this tab that will be seen only by you. Learn more ›
×
You can save this tab as Personal to edit and correct it or add notes. All changes will be seen only by you. Learn more »
launch autoscroll
font size
0
reset
how to read this tab
guitar tuner
edit
Autoscroll
slow
fast
+/-
esc
set tempo
stop
About this tab version
An alternative arrangment of a timeless song. The capo on the 5th fret gives the song a brighter feel. Was this info helpful? Yes No
[Intro]
e|------------------1-----|------------------1-----|
B|------1---------3---3---|------1---------3---3---|
G|----0---0-----2-------2-|----0---0-----2-------2-|
D|--2-------2-0-----------|--2-------2-0-----------|
A|3-----------------------|3-----------------------|
E|------------------------|------------------------|
                                            I See...
[Verse]
e|------------------------|------------------------|------1-----------------|------------------------|
B|------1-----------------|------------------------|----3---3---------1-----|------0-----------1-----|
G|----0---0---------0-----|------2-----------0-----|--2-------2-----0---0---|--------1-------2---2---|
D|--2-------2-----2---2---|----3---3-------2---2---|0-------------2-------2-|----0-----0---2-------2-|
A|3-------------2-------2-|--3-------3---2-------2-|------------3-----------|--2---------0-----------|
E|------------0-----------|1-----------0-----------|------------------------|0-----------------------|

  Trees    of green           Red roses too            I see                  for me & you    & I
                                                        them bloom                          
e|------------------------|------1-----------1-----|------------------------|------------3^----------|
B|------------------------|----3---3-----------0---|------1-----------1-----|------1-----0|----------|
G|------5-----------5-----|--2-------2-----------0-|----0---0-------1---1---|----2---2---0|----------|
D|----6---6-------6---6---|0---------------0-------|--2-------2---2-------2-|--3-------3-0|----------|
A|--6-------6---6-------6-|--------------2---------|3-----------3-----------|3-----------2|----------|
E|4-----------4-----------|------------3-----------|------------------------|------------3|----------|

  Think to myself              What a wonderful world                                      I see

e|------------------------|------------------------|------1-----------------|------------------------|
B|------1-----------------|------------------------|----3---3---------1-----|------0-----------1-----|
G|----0---0---------0-----|------2-----------0-----|--2-------2-----0---0---|--------1-------2---2---|
D|--2-------2-----2---2---|----3---3-------2---2---|0-------------2-------2-|----0-----0---2-------2-|
A|3-------------2-------2-|--3-------3---2-------2-|------------3-----------|--2---------0-----------|
E|------------0-----------|1-----------0-----------|------------------------|0-----------------------|

  skys   of blue           and clouds of white     the bright blessed day, the dark scared night

                                                                               
e|------------------------|------1-----------1-----|------------------------|------------|
B|------------------------|----3---3-----------0---|------1-----------1-----|------1-----|
G|------5-----------5-----|--2-------2-----------0-|----0---0-------2---2---|----0---0---|
D|----6---6-------6---6---|0---------------0-------|--2-------2---3-------3-|--2-------2-|
A|--6-------6---6-------6-|--------------2---------|3-----------3-----------|3-----------|
E|4-----------4-----------|------------3-----------|------------------------|------------|

  Think to myself              What a wonderful world                              The



[Chorus]

e|------------------------|------------------------|------------------------|------------------------|
B|------------------------|------1-----------1-----|------------------------|------1-----------1-----|
G|------0-----------0-----|----0---0-------0---0---|------0-----------0-----|----0---0-------0---0---|
D|----0---0-------0---0---|--2-------2---2-------2-|----0---0-------0---0---|--2-------2---2-------2-|
A|--2-------2---2-------2-|3-----------3-----------|--2-------2---2-------2-|3-----------3-----------|
E|3-----------3-----------|------------------------|3-----------3-----------|------------------------|

  Colours of a rainbow so pretty in the sky       The smile on the faces of people walking by. I see

e|------------------------|------------------------|------------------------|1---1---3---------------|
B|------1-----------------|------1-----------------|------1-----------------|3---3---0---------------|
G|----2---2---------0-----|----2---2---------0-----|----2---2---------0-----|2---2---0---------------|
D|--2-------2-----0---0---|--2-------2-----0---0---|--2-------2-----0---0---|0---0---0---------------|
A|0-------------2-------2-|0-------------2-------2-|0-------------2-------2-|--------2-----------2---|
E|------------3-----------|------------3-----------|------------3-----------|--------3---------3-----|

Friends shaking hands saying "how do you do" when they're really saying      I love you       I see

[Verse]

e|------------------------|------------------------|------1-----------------|------------------------|
B|------1-----------------|------------------------|----3---3---------1-----|------0-----------1-----|
G|----0---0---------0-----|------2-----------0-----|--2-------2-----0---0---|--------1-------2---2---|
D|--2-------2-----2---2---|----3---3-------2---2---|0-------------2-------2-|----0-----0---2-------2-|
A|3-------------2-------2-|--3-------3---2-------2-|------------3-----------|--2---------0-----------|
E|------------0-----------|1-----------0-----------|------------------------|0-----------------------|

  babies     cry          I watch them grow    they'll learn so much more than I'll ever know
e|-----------------------|-------1-----------1-----|------------------------|------------------------|
B|-----------------------|-----3---3-----------0---|------1-----------1-----|------1-----------1-----|
G|------5-----------5----|---2-------2-----------0-|----0---0-------0---0---|----0---0-------0---0---|
D|----6---6-------6---6--|-0---------------0-------|--2-------2---2-------2-|--2-------2---2-------2-|
A|--6-------6---6-------6|---------------2---------|3-----------2-----------|0-----------------------|
E|4-----------4----------|-------------3-----------|------------------------|------------3-----------|

and I think to myself     what a wonderful world  



[Outro]
(free time)
e|------------------------1^-----------1--------------------------8-------------------------------|
B|------------------------1|-----------0---------------------1/8----------------------------------|
G|------------------------2|-----------0-------------------0--------------------------------------|
D|------------------------0|-----------0-----------------2----------------------------------------|
A|-------------------------------------2---------------3------------------------------------------|
E|1------------------------------------3----------------------------------------------------------|

    and I think to myself       What a wonderful world


Legend:
|--------------------------------|
|arrow pointing up = Down Stroke |
|          / = Legato slide      |
|                                |
|--------------------------------|

            
            
Suggest correction
Creating personal tab
Creating personal tab
You can edit any tab online and save it as your Personal.

You can edit, replace or remove any tab part or add personal notes – all changes will be seen only by you.

Personal tabs can be accessed anytime from any device, even offline.
Learn more »
Give kudos to tab author, rate the tab!
1 2 3 4 5
comments
print report bad tab
guest
You may want to rate the tab now too:
select rating
Wanna post a correction for this tab? Suggest correction