Oops, an error
Loading. Please wait.

When The Saints Go Marching In Tab

version 1
version 1

Whole song

60,166 views 132 this week
6 commentsread comments
1 2 3 4 5
x 8
add to favorites
launch autoscroll
font size
0
reset
how to read this tab
guitar tuner
×
Best way to learn
"When The Saints Go Marching In"
Autoscroll
slow
fast
+/-
esc
set tempo
stop
Author
Tuning
  follow
E A D G B E
e|-----------------------------------------------|
b|---0-1-3----0-1-3-----0-1-3-0---0--------------|
G|-0--------0---------0---------0---2------------|
D|-----------------------------------------------|
A|-----------------------------------------------|
E|-----------------------------------------------|


e|-----------------------------------------------|
b|--0-0---------0--3--3-1--1--0--1--3--0---------|
G|------2-0---0---------------------------0-2--0-|
D|-----------------------------------------------|
A|-----------------------------------------------|
E|-----------------------------------------------|


OK Folks, it's not really the whole song, it's kinda the melody of the chorus..
so long.if you have any questions...X00tabak@aol.com
Suggest correction
comments
print report bad tab
6 comments total. Showing first comments.
0 reply
pro-bmx-4-life 10 Mar 23, 2006 11:11 AM

not bad [pretty good

+1 reply
AmyRayFan 103 May 25, 2007 08:21 AM

yeah, it isn't bad only a few notes are wrong at the end but over all its good

0 reply
guitar champ104 83 Jul 03, 2007 01:19 PM

Yeah at the end you got a bit wrong

guest
You may want to rate the tab now too:
select rating
Wanna post a correction for this tab? Suggest correction