Oops, an error
Loading. Please wait.

Just Hold On tab

805 views 15 this week
no commentswrite comment
1 2 3 4 5
x 3
add to favorites
×
Save as Personal and add changes to this tab that will be seen only by you. Learn more ›
×
You can save this tab as Personal to edit and correct it or add notes. All changes will be seen only by you. Learn more »
launch autoscroll
font size
0
reset
how to read this tab
guitar tuner
edit
Autoscroll
slow
fast
+/-
esc
set tempo
stop
About this tab version
Fingerstyle version based off Eddies arrangement. Was this info helpful? Yes No
Based off Eddie Van Der Meers arrangement

[Verse]

e|------0--------0--3-----0-----------------------------------------------------|
B|-0-3--------3---------------3--0--------0-----3-------------0-----------------|
G|-------------------------------------0--------------2---0-2-----2-0-----------|
D|----------------------------------------------------0-0-0-0---0---0--2--------|
A|---------------------------------------------------------------------0-0-0----|
E|------0--0--0--0-----0------0--3--3--3--3--3-----3----------------------------|

e|------------0--------0--3---0-------------------------------------------------|
B|--0----3-----------------------3--0--------0--0---3--0--0-------0-------------|
G|------------------------------------------------------------0-2-----2-0-------|
D|--------------------------------------------------------0-0-0-0---0---0-2-----|
A|--0--0---0--------------------------------------------------------------0-0-0-|
E|------------0--0--0--0----0----0--3--3--3--3----3----3------------------------|

[Pre-chorus]

e|------------------------------------------------------------------------------|
B|-1-1---0----1----0--0--1----0--------0-----------------0--------0-------------|
G|------------0----0--0--0----0--------0--------0-0-0---------------------0-----|
D|---------------------------------------------------------------------------0--|
A|-0---0---0--3--3-x-----3--3----x--3--------2--x-----2-----x-----------2-x-----|
E|-----------------x-------------x---------3----x---3-------x--3------0---x-----|

e|------------------------------------------------------------------------------|
B|-------0-0-------------1-1p0-----1-----0--0--1---0--------0---------------0-0-|
G|--0-2----------2-----------------0-----0--0--0---0--------0-------0-0-0-2-----|
D|-------------0------0---------0-----------------------------------------------|
A|-------x----------x--------x-----3--3--x-----3-3-----x--3-------2-x-------x---|
E|--0----x----------x--------x-----------x-------------x--------3---x---3---x---|

e|------------------------------------------------------------------------------|
B|-----------------0--0---------------------0----------0-3-5----3----------0-3--|
G|------0-----0-2-----------2---------2--------2--0----0---0----0----------0----|
D|---------0--------------0--------0-----2----------2---------------------------|
A|---2--x----------x------------x-----------x-----3----x---3-3--x--3----2--x----|
E|-0----x-----0----x------------x-----------x----------x--------x-----3----x----|

e|----------------------------<12>----------------------------------------------|
B|--5-----3-----0--<12>----------------------<12>---------------0----------0-3--|
G|--0-----0-----0--------<7>----------<7>-----------------2--------2--0----0----|
D|------------------------------0--0-------0--0---------0---2-----------2-------|
A|--------x----------x-----------------x------------x-----------x-----3----x----|
E|--3--3--x--3-------x-----------------x------------x-----------x----------x----|

e|------------------------------------------------------------------------------|
B|-5-----3----------0-3-5-----3------0-0h3------3-------------------------------|
G|-0-----0----------0---0-----0--------0--------------2p0----------2------------|
D|-----------------------------------0-------------0----------2--0---0----------|
A|-3--3--x--3----2--x---------x--------------x-------------x--------------------|
E|-------x-----3----x---3--3--x--3-----------x-------------x--------------------|

[Chorus]

e|--/3-2-0---------0-------------3-2-0--------0-----------------------------0---|
B|---0---0----3-3-------3---0---0--------3-3--0---3-0-------0---0-------0-3-----|
G|------------0----------------0---------0----------------2-------2-0-----------|
D|----------2---------2---2---0--------2--------2-------0-----------------------|
A|-------3----------------------------------------------------------3-3-3-3-3-3-|
E|--------------------------3--------0------------------------------------------|

e|--------------0---------------------------------------------------------------|
B|-3--------0-3-----3-----0--------------------0-3-3p0--------------------------|
G|------------------------------------------------------2-0---------------------|
D|------------------------------------------0-----------------------------------|
A|-3-3--------------------------------------x-----------------------------------|
E|------3-3-3-3-3-3-3-3---0-0-0-0-0-0-0-0---0-----------------------------------|

[Post-chorus]
   o        o          o        o          o           o         o         o
e|------------------------------------------------------------------------------|
B|------0-3-5----3----------0-3-5----3-----0----0--0h3p0--3p0----------0-3-3p0--|
G|-0----0---0----0----------0---0----0----------0--------------0-2--------------|
D|---2-------------------------------------0-0---------0---------0-0------------|
A|-3----x---3-3--x--3----2--x--------x----------x-----------x----------x--------|
E|------x--------x-----3----x---3-3--x--3-------x-----------x----------x--------|

          o        o         o        o          o          o         o       o
e|------------------------------------------------------------------------------|
B|---0---------0-3-5---3----------0-3-5---3------0---0--0h3p0--3p0------------0-|
G|-2---2--0----0---0---0----------0---0---0----------0--------------0-2---2---2-|
D|----------2------------------------------------0-0--------0---------0-0-0-0---|
A|---x----3----x---3-3-x--3----2--x-------x----------x-----------x--------x-----|
E|---x---------x-------x-----3----x---3-3-x--3-------x-----------x--------x-----|

[Verse]

e|----------0---------0--3--0---------------------------------------------------|
B|----3------------3--------0--3--0----0---0---3----------------0---------------|
G|----2--------------------------------0---0---0----2----2-0--2----2-0--------0-|
D|-0-----0------------------------------------------0----0---------0----2---2---|
A|----x---------x-----------x-----3-3--x-3-3-3-x-3-------x---------x----0-0-x---|
E|----x-----0-0-x-----0-----x----------x-------x----3-3--x----3----x--------x---|

e|--3-3-3-3---------------------------------------------------------------------|
B|----0-0-------1----0-1-3-1--0-------0-0-0---3--------3------------------------|
G|--------------0------0---0----------0---0---0--------0----0---0-0-0-0-0-------|
D|---------------------------------2------------------------0-0-0-0-0-0-0----4--|
A|------x---------x--------x-----3----x---3-3-----x-3---------x-------x----0---x|
E|------x----0----x----0---x----------x-----------x-------3---x---3---x--------x|

[Pre-chorus]

e|------------------------------------------------------------------------------|
B|---1-1p0----1----0--0--1----0--------0-----------------0--------0-------------|
G|------------0----0--0--0----0--------0--------0-0-0---------------------0-----|
D|-0-------0------------------------------------0----------------------------0--|
A|-------x----3--3-x-----3--3----x--3-----------x-----------x-----------2-x-----|
E|-------x---------x-------------x---------3-3--x---3-3-----x--3------0---x-----|

e|------------------------------------------------------------------------------|
B|-------0-0------------1-1p0-----1-----0--0--1---0-------0--------------0-----0|
G|--0-2---------2-----------------0-----0--0--0---0-------0------0-0-0----------|
D|------------0------0---------0------------------------------------------------|
A|-------x---------x--------x-----3--3--x-----3-3----x--3------2-x---------x----|
E|--0----x---------x--------x-----------x------------x-------3---x---3-3---x-3--|

e|------------------------------------------------------------------------------|
B|-----------------0--0---------------------0----------0-3-5----3----------0-3--|
G|------0-----0-2-----------2---------2--------2--0----0---0----0----------0----|
D|---------0--------------0--------0-----2----------2---------------------------|
A|---2--x----------x------------x-----------x-----3----x---3-3--x--3----2--x----|
E|-0----x-----0----x------------x-----------x----------x--------x-----3----x----|

e|----------------------------<12>----------------------------------------------|
B|--5-----3-----0--<12>----------------------<12>---------------0----------0-3--|
G|--0-----0-----0--------<7>----------<7>-----------------2--------2--0----0----|
D|------------------------------0--0-------0--0---------0---2-----------2-------|
A|--------x----------x-----------------x------------x-----------x-----3----x----|
E|--3--3--x--3-------x-----------------x------------x-----------x----------x----|

e|------------------------------------------------------------------------------|
B|-5-----3----------0-3-5-----3------0-0h3------3-------------------------------|
G|-0-----0----------0---0-----0--------0--------------2p0----------2------------|
D|-----------------------------------0-------------0----------2--0---0----------|
A|-3--3--x--3----2--x---------x--------------x-------------x--------------------|
E|-------x-----3----x---3--3--x--3-----------x-------------x--------------------|

[Chorus]

e|--/3-2-0---------0-------------3-2-0--------0-----------------------------0---|
B|---0---0----3-3-------3---0---0--------3-3--0---3-0-------0---0-------0-3-----|
G|------------0----------------0---------0----------------2-------2-0-----------|
D|----------2---------2---2---0--------2--------2-------0-----------------------|
A|-------3----------------------------------------------------------3-3-3-3-3-3-|
E|--------------------------3--------0------------------------------------------|

e|--------------0---------------------------------------------------------------|
B|-3--------0-3-----3-----0--------------------0-3-3p0--------------------------|
G|------------------------------------------------------2-0---------------------|
D|------------------------------------------0-----------------------------------|
A|-3-3--------------------------------------x-----------------------------------|
E|------3-3-3-3-3-3-3-3---0-0-0-0-0-0-0-0---0-----------------------------------|

[Post-chorus]
   o        o          o        o          o           o         o         o
e|------------------------------------------------------------------------------|
B|------0-3-5----3----------0-3-5----3-----0----0--0h3p0--3p0----------0-3-3p0--|
G|-0----0---0----0----------0---0----0----------0--------------0-2--------------|
D|---2-------------------------------------0-0---------0---------0-0------------|
A|-3----x---3-3--x--3----2--x--------x----------x-----------x----------x--------|
E|------x--------x-----3----x---3-3--x--3-------x-----------x----------x--------|

          o        o         o        o         o          o         o       o    
e|------------------------------------------------------------------------------|
B|---0---------0-3-5---3----------0-3-5---3-----0---0--0h3p0--3p0--------0-3-3p0|
G|-2---2--0----0---0---0----------0---0---0---------0--------------0-2----------|
D|----------2-----------------------------------0-0--------0---------0-0--------|
A|---x----3----x---3-3-x--3----2--x-------x---------x-----------x--------x------|
E|---x---------x-------x-----3----x---3-3-x--3------x-----------x--------x------|


e|------------------------------------------------------------------------------|
B|---0--------------------------------------------------------------------------|
G|-2---2------------------------------------------------------------------------|
D|------------------------------------------------------------------------------|
A|---x--------------------------------------------------------------------------|
E|---x--------------------------------------------------------------------------|

[Outro]

e|---------0------------------0-------------------------------------------------|
B|-----0-3------3---------0-3------3----0-0h3-3------------------0--------0--3--|
G|-0----------0---0-----0--------0---0----0---------2p0------2-----2--0---------|
D|---2----------------------------------0-------0-------2--0---0--------2-------|
A|-3------------------------------------------------------------------3---------|
E|-------------------3----------------------------------------------------------|

e|--0-------------------0-----------------------<12>----------------------------|
B|-------3----------0-3-------3--0---<12>-------------------<12>----<12>--------|
G|-----0---0------0---------0--------------<7>--------<7>-----------<12>--------|
D|-------------------------------0----------------------------------<12>--------|
A|------------------------------------------------------------------<12>--------|
E|------------3-----------------------------------------------------------------|


************************************

| x   Dead note
| h   Hammer-on
| p   Pull-off
| /   Slide up
| \   Slide down
|<->  Harmonic
| o   Wrist thump

************************************

            
            
Suggest correction
Creating personal tab
Creating personal tab
You can edit any tab online and save it as your Personal.

You can edit, replace or remove any tab part or add personal notes – all changes will be seen only by you.

Personal tabs can be accessed anytime from any device, even offline.
Learn more »
Give kudos to tab author, rate the tab!
1 2 3 4 5
comments
print report bad tab
guest
You may want to rate the tab now too:
select rating
Wanna post a correction for this tab? Suggest correction