Oops, an error
Loading. Please wait.

Illegal Tender bass

334 views 1 this week
1 commentread comment
1 2 3 4 5
3 more votes to show rating
add to favorites
×
Save as Personal and add changes to this tab that will be seen only by you. Learn more ›
×
You can save this tab as Personal to edit and correct it or add notes. All changes will be seen only by you. Learn more »
launch autoscroll
font size
0
reset
guitar tuner
edit
Autoscroll
slow
fast
+/-
esc
set tempo
stop
Author
-------------------------------------------------------------------------------
			     Illegal tender - Louis XIV
-------------------------------------------------------------------------------

Tabbed By :HiPpIe dUdE 
e-mail: besilix@hotmail.com

Tuning:Standard

dis is a pretty easy bass song,i hadnt picked up ma bass for 6 months and i
just listened to dis once and got it right away,so its gotta be realy easy.

Intro/Verse/Bridge

G|-----------------------------3-5-3-----------|---------------------------|
D|---5--5--5--5-3-5--5-3s5-3-5-------5---Repeat|---------------------------|
A|---------------------------------------------|---------------------------|
E|---------------------------------------------|---------------------------|

Chorus

G|------------------------------------5--5--5-3-5-3------------------------|
D|---5--5--5--5-3-5s7--7--7--7--7-5-7---------------5--5--3----------------|
A|-------------------------------------------------------------------------|
E|-------------------------------------------------------------------------|
Suggest correction
Creating personal tab
Creating personal tab
You can edit any tab online and save it as your Personal.

You can edit, replace or remove any tab part or add personal notes – all changes will be seen only by you.

Personal tabs can be accessed anytime from any device, even offline.
Learn more »
Give kudos to tab author, rate the tab!
1 2 3 4 5
comments
print report bad tab
1 comment total.
0 reply
dunco64 50 Feb 17, 2009 11:52 AM

This is a good tab, it has all the right notes, but it sounds much better to me an octave down down on the E string, at:
A|--------------------131-----------
E|-3-3-3-313-3-1s3-1-3--------------
so basically, it's good, but an octave too high

guest
You may want to rate the tab now too:
select rating
Wanna post a correction for this tab? Suggest correction