Oops, an error
Loading. Please wait.

Lifeboat bass

by Lovage
238 views 1 this week
no commentswrite comment
1 2 3 4 5
2 more votes to show rating
add to favorites
×
Save as Personal and add changes to this tab that will be seen only by you. Learn more ›
×
You can save this tab as Personal to edit and correct it or add notes. All changes will be seen only by you. Learn more »
launch autoscroll
font size
0
reset
guitar tuner
edit
Autoscroll
slow
fast
+/-
esc
set tempo
stop
Author
Difficulty
Intro

G|-------------------------|
D|-wait for a few measures-|
A|-------------------------|
E|-------------------------|

0:25 Main Riff 
G|-----------------------------------------------|
D|-5--0-3-3--3-------------5--0-3--3-------------|
A|-------------6--0-5-5--3-----------6--0-5-5--3-|
E|-----------------------------------------------|

G|-----------------------------------------------|
D|-5--0-3-3--3-------------5--0-3--3-------------|
A|-------------6--0-5-5--3-----------------------|
E|-----------------------------------5--5-8-8--8-|

Verse: 0:50
  After all our...
G|-----------------------------------------------|
D|-5--0-3-3--3-------------5--0-3--3-------------|
A|-------------6--0-5-5--3-----------6--0-5-5--3-|
E|-----------------------------------------------|
  Still echoing...
G|-----------------------------------------------|
D|-5--0-3-3--3-------------5--0-3--3-------------|
A|-------------6--0-5-5--3-----------6--0-5-5--3-|
E|-----------------------------------------------|
  Witnessed the passing...
G|-----------------------------------------------|
D|-5--0-3-3--3-------------5--0-3--3-------------|
A|-------------6--0-5-5--3-----------6--0-5-5--3-|
E|-----------------------------------------------|
  Why did you...
G|-----------------------------------------------|
D|-5--0-3-3--3-------------5--0-3--3-------------|
A|-------------6--0-5-5--3-----------6--0-5-5--3-|
E|-----------------------------------------------|
  But it seems...
G|-----------------------------------------------|
D|-5--0-3-3--3-------------5--0-3--3-------------|
A|-------------6--0-5-5--3-----------6--0-5-5--3-|
E|-----------------------------------------------|
  In the refuge...
G|-----------------------------------------------|
D|-5--0-3-3--3-------------5--0-3--3-------------|
A|-------------6--0-5-5--3-----------------------|
E|-----------------------------------5--5-8-8--8-|

Chorus: 2:04
  How can it be...
G|-----------------------------------------------|
D|-5--0-3-3--3-------------5--0-3--3-------------|
A|-------------6--0-5-5--3-----------6--0-5-5--3-|
E|-----------------------------------------------|
  Is it wrong that we...
G|-----------------------------------------------|
D|-5--0-3-3--3-------------5--0-3--3-------------|
A|-------------6--0-5-5--3-----------------------|
E|-----------------------------------5--5-8-8--8-|

Verse 2: 2:29
  In our soul...
G|-----------------------------------------------|
D|-5--0-3-3--3-------------5--0-3--3-------------|
A|-------------6--0-5-5--3-----------6--0-5-5--3-|
E|-----------------------------------------------|
  But to admit that...
G|-----------------------------------------------|
D|-5--0-3-3--3-------------5--0-3--3-------------|
A|-------------6--0-5-5--3-----------------------|
E|-----------------------------------5--5-8-8--8-|

Chorus 2: 2:53
  How can it be...
G|-----------------------------------------------|
D|-5--0-3-3--3-------------5--0-3--3-------------|
A|-------------6--0-5-5--3-----------6--0-5-5--3-|
E|-----------------------------------------------|
  Is it wrong that we...
G|-----------------------------------------------|
D|-5--0-3-3--3-------------5--0-3--3-------------|
A|-------------6--0-5-5--3-----------6--0-5-5--3-|
E|-----------------------------------------------|
  How can it be...
G|-----------------------------------------------|
D|-5--0-3-3--3-------------5--0-3--3-------------|
A|-------------6--0-5-5--3-----------6--0-5-5--3-|
E|-----------------------------------------------|
  Is it wrong that we...
G|-----------------------------------------------|
D|-5--0-3-3--3-------------5--0-3--3-------------|
A|-------------6--0-5-5--3-----------------------|
E|-----------------------------------5--5-8-8--8-|
  How can it be...
G|-----------------------------------------------|
D|-5--0-3-3--3-------------5--0-3--3-------------|
A|-------------6--0-5-5--3-----------6--0-5-5--3-|
E|-----------------------------------------------|
  Is it wrong that we...
G|-----------------------------------------------|
D|-5--0-3-3--3-------------5--0-3--3-------------|
A|-------------6--0-5-5--3-----------------------|
E|-----------------------------------5--5-8-8--8-|

Outro: 4:07

G|-----------------------------------------------|
D|-5--0-3-3--3-------------5--0-3--3-------------|
A|-------------6--0-5-5--3-----------6--0-5-5--3-|
E|-----------------------------------------------|

G|-----------------------------------------------|
D|-5--0-3-3--3-------------5--0-3--3-------------|
A|-------------6--0-5-5--3-----------------------|
E|-----------------------------------5--5-8-8--8-|

Well thats it. If you have and comments you know where to put them.
Also thanks TaintSauce for giving me a starting point for writing this tab.

            
            
Suggest correction
Creating personal tab
Creating personal tab
You can edit any tab online and save it as your Personal.

You can edit, replace or remove any tab part or add personal notes – all changes will be seen only by you.

Personal tabs can be accessed anytime from any device, even offline.
Learn more »
Give kudos to tab author, rate the tab!
1 2 3 4 5
comments
print report bad tab
guest
You may want to rate the tab now too:
select rating
Wanna post a correction for this tab? Suggest correction