Oops, an error
Loading. Please wait.

Orange Skies bass

by Love
73 views 1 this week
no commentswrite comment
1 2 3 4 5
3 more votes to show rating
add to favorites
×
Save as Personal and add changes to this tab that will be seen only by you. Learn more ›
×
You can save this tab as Personal to edit and correct it or add notes. All changes will be seen only by you. Learn more »
launch autoscroll
font size
0
reset
guitar tuner
edit
Autoscroll
slow
fast
+/-
esc
set tempo
stop
Author
Difficulty
Tabbed by: 6METAL6BASSIST6
E-mail: petergriffinav@gmail.com

Tuning: EADG

0:11

G|----------------------------------------------------------------|.
D|------------------------4---------------------------4---7-------|.
A|5-----------5---------------5---4-----------4-------------------|.
E|----------------------------------------------------------------|.
                                                                   . x2
G|----------------------------------------------------------------|.
D|--------------------------------5-----------5-----------4---5---|.
A|2-----------2---------------2-----------------------------------|.
E|------------------------3---------------------------------------|.

G|----------------------------------------------------------------|
D|----------------------------2---3---5---3-----------2-----------|
A|5-----------5-----------5-------------------------------5---3---|
E|----------------------------------------------------------------|

G|----------------------------------------------------------------|
D|----------------------------------------------------------------|
A|5-----------5---5-----------5---5-----------5---5-----------5---|
E|----------------------------------------------------------------|

G|----------------------------------------------------------------|
D|----------------------------------------------------2---4-------|
A|----------------2-----------2---4-----------4---5---------------|
E|5-----------5---------------------------------------------------|

0:41

G|----------------------------------------------------------------|
D|------------------------4---------------------------4---7-------|
A|5-----------5---------------5---4-----------4-------------------|
E|----------------------------------------------------------------|

G|----------------------------------------------------------------|
D|--------------------------------5-----------5-----------4---5---|
A|2-----------2---------------2-----------------------------------|
E|------------------------3---------------------------------------|

G|----------------------------------------------------------------|
D|----------------------------2---3---5---3-----------2-----------|
A|5-----------5---5-------5-------------------------------5---3---|
E|----------------------------------------------------------------|

G|----------------------------------------------------------------|
D|----------------------------------------5---2-------------------|
A|5-----------5---5-----------5---5---------------5-------5-------|
E|----------------------------------------------------------------|

0:58

G|----------------------------------------------------------------|
D|----------------2-------5-------3-------2---3---5---3---2-------|
A|3-----------3-----------------------------------------------5---|
E|----------------------------------------------------------------|

G|----------------------------------------------------------------|
D|----------------2-------5-------3-------2---3---5-------3---2---|
A|3-----------3---------------------------------------------------|
E|----------------------------------------------------------------|

G|----------------------------------------------------------------|
D|----------------2---3---2-------3-------2---3---5---3---2-------|
A|3-----------3-----------------------------------------------5---|
E|----------------------------------------------------------------|

G|----------------------------------------------------------------|
D|--------------------3---2---5---3-----------3---3-----5-----2---|
A|3-----------3---5-----------------------------------------------|
E|----------------------------------------------------------------|

G|----------------------------------------------------------------|
D|----------------------------------------------------------------|
A|3-----------3---3-------3-------1-----------1---1-------1-------|
E|----------------------------------------------------------------|

1:20

G|----------------------------------------------------------------|
D|------------------------4---------------------------4---7-------|
A|5-----------5---------------5---4-----------4-------------------|
E|----------------------------------------------------------------|

G|----------------------------------------------------------------|
D|--------------------------------5-----------5-----------4---5---|
A|2-----------2---------------2-----------------------------------|
E|------------------------3---------------------------------------|

G|--------------------------------------------------------,-------|
D|----------------------------4-----------------------4---7-------|
A|5-----------5-----------5-------4-----------4-------------------|
E|----------------------------------------------------------------|

G|----------------------------------------------------------------|
D|--------------------------------5-----------5-----------4---5---|
A|2-----------2---------------2-----------------------------------|
E|------------------------3---------------------------------------|

G|----------------------------------------------------------------|
D|----------------------------2---3---5---3-----------2-----------|
A|5-----------5---5-------5-------------------------------5---3---|
E|----------------------------------------------------------------|

G|----------------------------------------------------------------|
D|------------------------------------------------5---2-----------|
A|5-----------5---5-----------5---5-----------5-----------5-------|
E|----------------------------------------------------------------|

1:46

G|----------------------------------------------------------------|
D|--------------------3---2---5---3-------2---3---5---3---2-------|
A|3-----------3---5-------------------------------------------5---|
E|----------------------------------------------------------------|

G|----------------------------------------------------------------|
D|----------------2---3-------2---3-------2---3---5---3---2-------|
A|3-----------3-----------------------------------------------5---|
E|----------------------------------------------------------------|

G|----------------------------------------------------------------|
D|--------------------3---2---5---3-------3---2---3---5---3---2---|
A|3-----------3---5-----------------------------------------------|
E|----------------------------------------------------------------|

G|----------------------------------------------------------------|
D|------------------------3-------3-----------3---3-----5-----2---|
A|3-----------3---5-----------------------------------------------|
E|----------------------------------------------------------------|

G|----------------------------------------------------------------|
D|----------------------------------------------------------------|
A|3-----------3---3-------3-------1-----------1---1-------1-------|
E|----------------------------------------------------------------|

2:07

G|----------------------------------------------------------------|
D|3-----------3-------------------3---------------3---------------|
A|----------------3-------3---------------3---5-------5---3-------|
E|----------------------------------------------------------------|

G|----------------------------------------------------------------|
D|7-----------7---4-------4-------7-----------7---4-------4-------|
A|----------------------------------------------------------------|
E|----------------------------------------------------------------|

G|----------------------------------------------------------------|
D|3---------------3---------------3---------------3---------------|
A|--------3---5-------5---3---------------3---5-------5---3-------|
E|----------------------------------------------------------------|

G|----------------------------------------------------------------|
D|--------------------------------------------------------2---3---|
A|----3-------3---3---------------3---------------2---3-----------|
E|------------------------3---------------3---5-------------------|

G|----------------------------------------------------------------|
D|5-----------5---5-----------5---5-----7-----5---3-------2-------|
A|----------------------------------------------------------------|
E|----------------------------------------------------------------|

2:37

G|----------------------------------------------------------------|
D|------------------------4---------------------------4---7-------|
A|5-----------5---------------5---4-----------4-------------------|
E|----------------------------------------------------------------|

G|----------------------------------------------------------------|
D|--------------------------------5-----------5-----------4---5---|
A|2-----------2---------------2-----------------------------------|
E|------------------------3---------------------------------------|

G|----------------------------------------------------------------|
D|------------------------4---------------------------4---7-------|
A|5-----------5---------------5---4-----------4-------------------|
E|----------------------------------------------------------------|

G|----------------------------------------------------------------|
D|--------------------------------5-----------5-----------4-------|
A|2-----------2---------------2-----------------------------------|
E|------------------------3---------------------------------------|

G|--------------------------------|
D|--------------------------------|
A|5-------------------------------|
E|--------------------------------|

            
            
Suggest correction
Creating personal tab
Creating personal tab
You can edit any tab online and save it as your Personal.

You can edit, replace or remove any tab part or add personal notes – all changes will be seen only by you.

Personal tabs can be accessed anytime from any device, even offline.
Learn more »
Give kudos to tab author, rate the tab!
1 2 3 4 5
comments
print report bad tab
guest
You may want to rate the tab now too:
select rating
Wanna post a correction for this tab? Suggest correction