Oops, an error
Loading. Please wait.

Berserker Tab

version 2
version 2

Whole song

Interactive

749 views 6 this week
no commentswrite comment
1 2 3 4 5
please rate
add to favorites
launch autoscroll
font size
0
reset
how to read this tab
guitar tuner
Autoscroll
slow
fast
+/-
esc
set tempo
stop
Help us to improve Ultimate-Guitar.com Take our survey!
×
Author
Love Among Freaks - Berserker
Tabbed by: swest_666

Tuning: Standard

(Verse)    (*)-Scratch/Chuck/[whatever you want to call it]

e|-----------------------------------------------------|
B|-----------------------------------------------------|
G|-----------------------------------------------------|
D|--2-2-2-2-2-2-2-2/9--8----8\2-2-2-2-2-2-2-2/9--8----8|
A|--2-2-2-2-2-2-2-2/7--8----8\2-2-2-2-2-2-2-2/9--8----8|
E|--0-0-0-0-0-0-0-0/7--6----6\0-0-0-0-0-0-0-0/7--6----6|

e|------------------------------------------------**---|
B|------------------------------------------------**---|
G|------------------------------------------------**---|
D|--2-2-2-2-2-2-2-2/9--8----8/9--8----9--8--------**---|
A|--2-2-2-2-2-2-2-2/9--8----8/9--8----9--8--------**---|
E|--0-0-0-0-0-0-0-0/7--6----6/9--6----7--6--------**---|

(Bridge) *PM throughout Bridge until*
                    *HERE!*
                       |
                       V
e|-------------------------------------------------|
B|-------------------------------------------------|
G|-------------------------------------------------|
D|-------------------------------------------------|
A|-4-4-4-4-444-4-4-444-4---------2-----------------|
E|-2-2-2-2-222-2-2-222-2-2-3-2-3-------------------|  X4

Order:

Verse
Bridge
Verse (w/additional main riff)
Bridge
Verse


Closing notes:

1)

e|--------|                         E|-------|
B|--------|                         B|-------|
G|--------|                         G|4--3---|
D|9--8----|                         D|4--3---|
A|9--8----|  can also be played as  A|2--1---|(preference.)
E|7--6----|                         E|-------|

2)

e|---------|                           e|---------|
B|---------|                           B|---------|
G|---------|                           G|--------4|
D|---------|                           D|4-5-4-5--|
A|--------2|  can also be played as    A|---------| (again, preference.)
E|2-3-2-3--|                           E|---------|


3) If you find it boring palm muting that phrase in the Bridge (like I do), tweak it out 
it sounds good to you.

4) Enjoy.
Suggest correction
Give kudos to tab author, rate the tab!
1 2 3 4 5
comments
print report bad tab
guest
You may want to rate the tab now too:
select rating
Wanna post a correction for this tab? Suggest correction