Oops, an error
Loading. Please wait.

No Big Deal Bass Tab

version 2
version 2

Whole song

601 views 3 this week
no commentswrite comment
1 2 3 4 5
please rate
add to favorites
launch autoscroll
font size
0
reset
guitar tuner
Autoscroll
slow
fast
+/-
esc
set tempo
stop
Help us to improve Ultimate-Guitar.com Take our survey!
×
Contributor
Difficulty
user2 30
novice
"No Big Deal" by Love and Rockets, from their album "Love and Rockets"


part 1:
G---------------|G
D---------------|D
A--1-1----44----|A
E------11-------|E

part 2:
G--------------------------|G
D--1-1----44---1-1---------|D
A------11----------11-44---|A
E--------------------------|E

part 3:
G------------------------------------------|G
D--3-3---------3-3---------1-1-------1-----|D
A------33-77-------33-66-------11-44-------|A
E------------------------------------------|E  

part 4:
G--------------------------------------------------------------|G
D--1-1----44---1-1----44---1-1----44---1-1----44---1-1---------|D
A------11----------11----------11----------11---------11-44----|A
E--------------------------------------------------------------|E


PLAYING ORDER:
p1 x 8
p2 x 1
p1 x 4
p3 x 1
p1 x 12
p4 x 1
p1 x 6
p3 x 1
p1 x 12
p4 x 1
p1 x 6
p3 x 1
p1 x 20
p4 x 1
p1 x 6
p3 x 1
p1 till the end.
comments
We did not receive enough feedback on this tab! Please rate:
print report bad tab
1 2 3 4 5
I want to post or [tab]
guest
You may want to rate the tab now too:
select rating
Please do not post tabs as comments. Select "correction" instead!