Oops, an error
Loading. Please wait.

Saudade Tab

4,220 views 12 this week
3 commentsread comments
1 2 3 4 5
accurate
x 7
add to favorites
launch autoscroll
font size
0
reset
how to read this tab
guitar tuner
Autoscroll
slow
fast
+/-
esc
set tempo
stop
Help us to improve Ultimate-Guitar.com Take our survey!
×
Okay, this is my first try at this, but i saw a request for this one
somewhere, and there are far too few Love & Rockets tabs out there,
so.... corrections, comments, and if anyone has tabs for A private
Future and/or Dog End of a Day Gone By, send to sunkingbaby@hotmail.com

                             *SAUDADE*
                        David J & Daniel Ash
  Intro:
E ---xxxx-x-x-x-xxxx-x-x-x-xxxx-x-x-x-xxxx-x-x-x-xxxxxxxxxxxxxxxxxxxx-|
A ---xxxx-x-x-x-xxxx-x-x-x-xxxx-x-x-x-xxxx-x-x-x-xxxxxxxxxxxxxxxxxxxx-|
D ---3----3-3-4-5----5-5-4-3----3-3-4-5----5-5-6-7--------------------|
G ----2---2-2-3--4---4-4-3--2---2-2-3--4---4-4-5--6---6---6---6---6-6-|
B -----1--1-1-2---3--3-3-2---1--1-1-2---3--3-3-4---5-5-5-5-5-5-5-5-5--|
e ------0-0-0-0----0-0-0-0----0-0-0-0----0-0-0-0----0---0---0---0-----|


     fig.1                       fig.2
E ---xxxxx--xxxxx--xxxxx--xxxxx--xxxxxxxxxxxxxx-x-xxxxxxxxxxxxxxxxxxx-|
A ---0------xxxxx--0------xxxxx--xxxxxxxxxxxxxx-x-xxxxxxxxxxxxxxxxxxx-|
D ----7777--0-000---7777--0-000--3------------3-4-5--------------5-4--|
G ----6666---6666---6666---6666---2---2--2----2-3--4---4--4------4-3--|
B ----5555---7777---5555---7777----1-1--1p0h1-1-2---3-3--5p3p0h3-3-2--|
e ----0777---5555---0777---5555-----0--3p0----0-0----0-----------0-0--|

                                     fig.3
E ---xxxxxxxxxxxxxxxxxxxxxxxxxxxxxxxxxxxxxxxxxxxxxxxxxxxxxxxx
A ---xxxxxxxxxxxxxxxxxxxxxxxxxxxxxxxxxxxxxxxxxxxxxxxxxxxxxxxx
D ---3------------3-4-5--------------5-6-7--------------------|
G ----2---2--2----2-3--4---4--4------4-5--6---6---6---6---6-6-|
B -----1-1--1p0h1-1-2---3-3--5p3p0h3-3-4---5-5-5-5-5-5-5-5-5--|
e ------0--3p0----0-0----0-----------0-0----0---0---0---0-----|

start of with a clean acoustic sound with a little vibrato & delay,
then repeat figures 1,2,& 3 about a million times until waves of
enlightenment are rolling through your mind, then kick on the overdrive
and just play the main chord shapes about a million more times until the
feedback carries you back to shore ;)
Suggest correction new What's this?
You can suggest a correction to this tab. Community and Mods will review your correction and vote to approve or reject it.
comments
print report bad tab
3 comments total.
+1 reply
jaapnac 244 wrote on June 30 2010, 06:31 am

you should have put the high e on top and the low E at the lowest string.

+1 reply
Nikoled 12 wrote on February 11 2016, 10:17 am

It's transpose backwards. You should also mention that it is played with a 12 strings guitar

0 reply
greg.web.dev 10 wrote on June 27 2016, 03:16 pm

Intro:
e ------0-0-0-0----0-0-0-0----0-0-0-0----0-0-0-0----0---0---0---0-----|
B -----1--1-1-2---3--3-3-2---1--1-1-2---3--3-3-4---5-5-5-5-5-5-5-5-5--|
G ----2---2-2-3--4---4-4-3--2---2-2-3--4---4-4-5--6---6---6---6---6-6-|
D ---3----3-3-4-5----5-5-4-3----3-3-4-5----5-5-6-7--------------------|
A ---xxxx-x-x-x-xxxx-x-x-x-xxxx-x-x-x-xxxx-x-x-x-xxxxxxxxxxxxxxxxxxxx-|
E ---xxxx-x-x-x-xxxx-x-x-x-xxxx-x-x-x-xxxx-x-x-x-xxxxxxxxxxxxxxxxxxxx-|

fig.1 fig.2
e ----0777---5555---0777---5555-----0--3p0----0-0----0-----------0-0--|
B ----5555---7777---5555---7777----1-1--1p0h1-1-2---3-3--5p3p0h3-3-2--|
G ----6666---6666---6666---6666---2---2--2----2-3--4---4--4------4-3--|
D ----7777--0-000---7777--0-000--3------------3-4-5--------------5-4--|
A ---0------xxxxx--0------xxxxx--xxxxxxxxxxxxxx-x-xxxxxxxxxxxxxxxxxxx-|
E ---xxxxx--xxxxx--xxxxx--xxxxx--xxxxxxxxxxxxxx-x-xxxxxxxxxxxxxxxxxxx-|

fig.3
e ------0--3p0----0-0----0-----------0-0----0---0---0---0-----|
B -----1-1--1p0h1-1-2---3-3--5p3p0h3-3-4---5-5-5-5-5-5-5-5-5--|
G ----2---2--2----2-3--4---4--4------4-5--6---6---6---6---6-6-|
D ---3------------3-4-5--------------5-6-7--------------------|
A ---xxxxxxxxxxxxxxxxxxxxxxxxxxxxxxxxxxxxxxxxxxxxxxxxxxxxxxxxx|
E ---xxxxxxxxxxxxxxxxxxxxxxxxxxxxxxxxxxxxxxxxxxxxxxxxxxxxxxxxx|

guest
You may want to rate the tab now too:
select rating
Please do not post tabs as comments. Select "correction" instead!