Oops, an error
Loading. Please wait.

The Dog-End Of A Day Gone By Tab

1,443 views 1 this week
no commentswrite comment
1 2 3 4 5
please rate
add to favorites
launch autoscroll
font size
0
reset
how to read this tab
guitar tuner
Autoscroll
slow
fast
+/-
esc
set tempo
stop
Help us to improve Ultimate-Guitar.com Take our survey!
×
Author
Difficulty
intermediate
THE DOG-END OF A DAY GONE BY
Love And Rockets

Taken from the album Sorted!: The Best Of Love And Rockets (2003). Originally from the album
Seventh Dream Of Teenage Heaven (1985)

Transcribed by: Damian Pamminger (TwitcheD_85@hotmail.com)

Standard tuning: E A D G B E

Intro
|------5--3-----------5--3----------5--3-----------5--3-----|-----------|
| -----------------------------------------------------------|----------|
|-----------0-------0------0-------------0-------0------0---|-REPEAT----|
|----0--------0---0----------0----2--------2---2----------2-|-----------|
| ------------------------------3-------------3--------------|----------|
|-3-------------3------------------------------------------- |----------|

Rhy. Fig. 1
|-------5--3-----------5--3-----------5--3-----------5--3--------|
| ---------------------------------------------------------------|
|-----0------0-------0------0-------0------0-------0------0------|
|---0----------0---0----------0---2----------2---2----------2----|
| -------------------------------3--------------3----------------|
|-3--------------3-----------------------------------------------|

Rhy. Fig. 2
|----------------|------------|-------3--2---- -|-----------|-------------------|
|-------3--1-----|------------|-----3------3-- -|-----------|-------3--1--------|
|-----0------0---|---REPEAT-- |---2----------2- |---REPEAT--|-----0------0------|
|---2----------2-|-three-more-|-0-------------- |-three-more-|---2----------2---|
|-3--------------|----times---|-----------------|----times---|-3----------------|
|----------------|------------|---------------- |----------- |------------------|

|------------|
|------------|
|---REPEAT-- |
|-three-more-|
|----times---|
|----------- |

Rhy. Fig. 3
|-------3--2-----------3--2----------------------------------- |--------------|
|-----3------3-------3------3---------3--1-----------3--1-----|---------------|
|---2----------2---2----------2-----0------0-------0------0---|---REPEAT------|
|-0--------------0----------------2----------2---2----------2-|-three-more----|
|-------------------------------3--------------3-------------- |----times-----|
|------------------------------------------------------------- |--------------|

|-------------------------------|
|-------3--1-----------3--1-----|
|-----0------0-------0------0---|
|---2----------2---2----------2-|
|-3--------------3--------------|
|-------------------------------|

Rhy. Fig. 4
|-------------------------------------------------------------------------------|
|-------------------------------------------------------------------------------|
|-2---2---2---2---2---2---2---2------------------------------------2---2---2----|
|-2---2---2---2---2---2---2---2---5---5---5---5---5---5---5---5---2---2---2-----|
|  0---0---0---0---0---0---0---0---5---5---5---5---5---5---5---5---0---0---0----|
|----------------------------------3---3---3---3---3---3---3---3----------------|

| ---------------------------3--2--------------------------3--2------|
| -------------------------3------3---------3--1---------3------3----|
|-2---2---2---2---2-----2----------2-----0------0-----0----------2---|
|-2---2---2---2---2---0----------------2----------2------------------|
|-0---0---0---0---0------------------3--------------2----------------|
| -------------------------------------------------------------------|

|-------3--2-----|
|-----3------3---|
|---2----------2-|
|----------------|
|-0--------------|
|----------------|

Fill
|---|
|-3-|
|-2-|
|-0-|
|---|
|---|

Lead 1 (Solo 1)
|------------------------------------------------------------------|
|-8---7--------------7--7h-8--7---------------7--7-/10-------------|
| --------7-------7----------------7-------7-----------------------|
|-------------5------------------------5---------------------------|
|------------------------------------------------------------------|
|------------------------------------------------------------------|

Lead 2 (Solo 2)
| ---------------------------------------------------------------------------------|
| ---------------------------------------------------------------------------------|
| ---------------------------------------------------------------------------------|
|-0-0-0-0-0-0-0-0-0-0-0-0-0-0-0-0-0-0-0-0-0-0-0-0-0-0-0-0-0-0-0-0-0-0-0-0-0-0------|
| ---------------------------------------------------------------------------------|
| ---------------------------------------------------------------------------------|

|---------------------------------|------------------------------------------------|
|---------------------------------|------------------------------------------------|
| -------------5-5b^-r-(5)-b^-r-(5)-|-----------------------------------5-5-5-5-5--|
|-0-0-0-0-0-0-------------------- |-0-0-0-0-0-0-0-0-0-0-0-0-0-0-0-0----------------|
|---------------------------------| -----------------------------------------------|
|---------------------------------| -----------------------------------------------|

| ---------------------------------|
| ---------------------------------|
|-5-5-5-5-5-5-5--5b^-r-(5)-.....---|
| ---------------------------------|
| ---------------------------------|
| ---------------------------------|

Lead 3 (Outro solo)
| ---------------------------------------------------|
|-8--8---------------------6---5---------------------|
| -----7--5h-7p-5h-7---------------5---4---5---7-----|
| ---------------------------------------------------|
| ---------------------------------------------------|
| ---------------------------------------------------|
Suggest correction
What's this?
You can suggest a correction to this tab. Community and Mods will review your correction and vote to approve or reject it.
comments
We did not receive enough feedback on this tab! Please rate:
print report bad tab
1 2 3 4 5
guest
You may want to rate the tab now too:
select rating
Please do not post tabs as comments. Select "correction" instead!