Oops, an error
Loading. Please wait.

Candy Tab

version 1
version 1

Intro

Whole song

Interactive

1,220 views 3 this week
no commentswrite comment
1 2 3 4 5
please rate
add to favorites
launch autoscroll
font size
0
reset
how to read this tab
guitar tuner
Tab Pro tools
  • play this tab
  • loop segment
  • change instrument
  • show fretboard
  • metronome
Autoscroll
slow
fast
+/-
esc
set tempo
stop
Contributor
A cool, simple song featured in American Pie Presents Beta House. Needless to say, 
it fitted in quite well!

This is my first tab, so feel free to post corrections/suggestions.

Album: Love Arcade(2006)
Tuning: EADGBe

Legend:

 h = hammer on
 p = pull off
 * = dampen note after sounding

Intro/Riff1
    *   *   *
e-----------------------------------------|
B-----------------------------------------|
G-4h5-4h5-4h5-5p4-3-2--2-2-2-2p0-2--------|
D----------------------------------4------|
A-----------------------------------------|
E-----------------------------------------|

Verse
e----------------------------------------------------|
B----------------------------------------------------|
G-----------------------7-7--------------------------|
D--7-7-7---7-7--7-7-7---7-7--------------------------|
A--7-7-7---7-7--7-7-7---5-5--------------------------|
E--5-5-5---5-5--5-5-5--------------------------------|

Pre-Chorus
e----------------------------------------------------|
B----------------------------------------------------|
G------------7-----------7---------------------------|
D--7-7-------7--7-7------7---------------------------|
A--7-7-------5--7-7------5---------------------------|
E--5-5----------5-5----------------------------------|

Chorus
e--------------------------------------------------------------|
B--------------------------------------------------------------|
G----------------------------7--7---7-7---7--7---7-7-----------|
D-7-7-7---7-7---7-7-7---7-7--7--7---7-7---7--7---7-7---7-7-7---|
A-7-7-7---7-7---7-7-7---7-7--5--5---5-5---5--5---5-5---7-7-7---|
E-5-5-5---5-5---5-5-5---5-5----------------------------5-5-5---|

Solo
e----------------12----------------------------------|
B-------10-12-14---13--10-10-12-14p12-10-------------|
G--10h11---------------------------------11-10-10h11-|
D----------------------------------------------------|
A----------------------------------------------------|
E----------------------------------------------------|

e----------------12-------------------------12-------|
B-------10-12-14---13--10-10-12-14p12-10-14----14----|
G----------------------------------------------------|
D----------------------------------------------------|
A----------------------------------------------------|
E----------------------------------------------------|
       
                      *                   *
e--12-14-14-14-12--------12-14-14-14-12--------------|
B-----------------14p12-----------------14-----------|
G----------------------------------------------------|
D----------------------------------------------------|
A----------------------------------------------------|
E----------------------------------------------------|
						



e----------------12---------------------------------------------12-------|
B-------10-12-14---13--10-10-12-14p12-10---------------10-12-14----13----|
G--10h11---------------------------------11-10-10h11---------------------|
D------------------------------------------------------------------------|
A------------------------------------------------------------------------|
E------------------------------------------------------------------------|
		                			^ Ties in with chorus here


Outro
e------|
B------|
G------|
D--7-7-|
A--7-7-|
E--5-5-|



Song Order:

Intro/Riff 1 x2; Verse x2
Verse x2
Prechorus x2
Chorus x2
Intro/Riff 1 x2; Verse x2
Verse x2
Prechorus x2
Chorus x 2
Solo x1; Versex3
Chorus x2
Intro/Riff 1 x2
Outro x1


Lyrics:

Lollipop, I won't stop, 
Gonna lick that sweetness from the top
You're loaded with sweetness; I'm all yours
Yeah, you're full (aah) through the drawers
I'll keep on staring, shaved or hairy
'Cos that's the type of fella that I am
I'll pop that cherry if it's necessary
To make me that jam

I want candy! Sweet tooth is drivin' me wild, 
An' candy makes me feel just like a child
Candy! Sweet tooth is drivin' me wild,
An' candy make me feel just like a child

Bubble gum, yummy yum, 
(She said) Blowin' you is so much fun
Big bazooka makes my teeth grind,
(She said) I just wanna blow you one more time
I'll be daring, I'll go pairing 
'Cos that's the type of fella that I am
I'll pop sisters Nicky, of course Paris,
To make me that jam

I want candy! Sweet tooth is drivin' me wild,
An' candy makes me feel just like a child
Candy! Sweet tooth is drivin' me wild,
An' candy make me feel just like a child
I want candy! Sweet tooth is drivin' me wild,
An' candy makes me feel just like a child
Candy! Sweet tooth is drivin' me wild,
An' candy make me feel just like a child

An' I want candy!
comments
We did not receive enough feedback on this tab! Please rate:
print report bad tab
1 2 3 4 5
I want to post or [tab]
guest
You may want to rate the tab now too:
select rating
Please do not post tabs as comments. Select "correction" instead!