Oops, an error
Loading. Please wait.

Sara Tab

299 views 1 this week
no commentswrite comment
1 2 3 4 5
please rate
add to favorites
launch autoscroll
font size
0
reset
how to read this tab
guitar tuner
Autoscroll
slow
fast
+/-
esc
set tempo
stop
Help us to improve Ultimate-Guitar.com Take our survey!
×
Author
Difficulty
novice
www.lovearcade.com
"Sara"
Love Arcade
Atlantic Records

Love Arcade is a unique band from Detroit. I've had the pleasure of seeing them live and 
talking to members of the band. They're all cool, down-to-earth guys who will actually 
to fan messages. I wish them all the best, and I know they'll be at the top one day.


-------------------------------------------------------------------------------
                             "Sara" - Love Arcade
-------------------------------------------------------------------------------
Tabbed by:
Email:genoxied@hotmail.com

Tuning: EADGBe

Intro/verse (part one) x4 (palm-mute)

e|---------------------------------------------------------------------------|
B|---------------------------------------------------------------------------|
G|----10-10-10-10-7-7-7-7-5-5-5-5-3-3-3-3------------------------------------|
D|---------------------------------------------------------------------------|
A|---------------------------------------------------------------------------|
E|---------------------------------------------------------------------------|

        Verse part two (x4)
e|---------------------------------------------------------------------------|
B|---------------------------------------------------------------------------|
G|--3-3-5-7-8-7--------------------------------------------------------------|
D|---------------------------------------------------------------------------|
A|---------------------------------------------------------------------------|
E|---------------------------------------------------------------------------|

       Chorus (Guitar 1)
e|---------------------------------------------------------------------------|
B|---------------------------------------------------------------------------|
G|-----10-------8-7----------------------------------------------------------|
D|-7-8----(x7)------6--------------------------------------------------------|
A|---------------------------------------------------------------------------|
E|---------------------------------------------------------------------------|

                Chorus (Guitar 2)

e|-1--------------6----------------------------------------------------------|
B|-3--------------6----------------------------------------------------------|
G|-3--------or----7----------------------------------------------------------|
D|-3--------------8----------------------------------------------------------|
A|-1--------------8----------------------------------------------------------|
E|----------------6----------------------------------------------------------|

I haven't tabbed that acoustic part or the background effects, but if I do, I'll add 
later. I hope you guys like it, it's the first Love Arcade tab on here. Also, check out my 
of Soma tab on here.

| /  slide up
| \  slide down
| h  hammer-on
| p  pull-off
| ~  vibrato
| +  harmonic
| x  Mute note
===============================================================================
Suggest correction
What's this?
You can suggest a correction to this tab. Community and Mods will review your correction and vote to approve or reject it.
comments
We did not receive enough feedback on this tab! Please rate:
print report bad tab
1 2 3 4 5
guest
You may want to rate the tab now too:
select rating
Please do not post tabs as comments. Select "correction" instead!