Oops, an error
Loading. Please wait.

So Full Of Tab

87 views 1 this week
1 commentread comment
1 2 3 4 5
please rate
add to favorites
launch autoscroll
font size
0
reset
how to read this tab
guitar tuner
Tab Pro tools
  • play this tab
  • loop segment
  • change instrument
  • show fretboard
  • metronome
Autoscroll
slow
fast
+/-
esc
set tempo
stop
Contributor
Difficulty
Artist: Love Bites
Title: So Full Of...
Tabbed by: DisturbedFxcker
problems?: send private message

This is only for the rhythm guitar!

x: palm mute


Intro / Verse - 0:00

e|----------------------------------------------|
B|----------------------------------------------|
G|----------0-4444444-4-5555555-5-7777777-0-----|
D|--5555555-0-4444444-4-5555555-5-7777777-0-----|x4
A|--5555555-0-2222222-2-3333333-3-5555555-0-----|
E|--3333333-------------------------------------|
     xx xx     xx xx     xx xx     xx xx 

Then... - 0:22

e|----------------------------------------------|
B|----------------------------------------------|
G|----------0-44444444-55555555-7-7-7-----------|
D|--5555555-0-44444444-55555555-7-7-7-----------|
A|--5555555-0-22222222-33333333-5-5-5-----------|
E|--3333333-------------------------------------|
     xx xx    

Pre-Chorus - 0:28

e|----------------------------------------------|
B|----------------------------------------------|
G|-----5--7--9----------------------------------|
D|-----5--7--9----------------------------------|
A|-----3--5--7----------------------------------|
E|----------------------------------------------|
      
Chorus - 0:30

e|----------------------------------------------|
B|----------------------------------------------|
G|-----55555--77777-----------------------------|
D|-----55555--77777-----------------------------| x2
A|-----33333--55555-----------------------------|
E|----------------------------------------------|

Then... - 0:36

e|----------------------------------------------|
B|----------------------------------------------|
G|-----99999--77777--5--------------------------|
D|-----99999--77777--5--------------------------|
A|-----77777--55555--3--------------------------|
E|----------------------------------------------|

Post-Chorus 0:41

e|----------------------------------------------|
B|----------------------------------------------|
G|-------444-555-777----------------------------|
D|----55-444-555-777----------------------------| x2
A|----55-222-333-555----------------------------|
E|----33----------------------------------------|

Verse 2 - 0:46

e|----------------------------------------------|
B|----------------------------------------------|
G|----------44444-55555-77777-------------------|
D|----55555-44444-55555-77777-------------------| x4
A|----55555-22222-33333-55555-------------------|
E|----33333-------------------------------------|

Pre-Chorus - 1:07

e|----------------------------------------------|
B|----------------------------------------------|
G|-----5--7--9----------------------------------|
D|-----5--7--9----------------------------------|
A|-----3--5--7----------------------------------|
E|----------------------------------------------|
      
Chorus - 1:09

e|----------------------------------------------|
B|----------------------------------------------|
G|-----55555--77777-----------------------------|
D|-----55555--77777-----------------------------| x2
A|-----33333--55555-----------------------------|
E|----------------------------------------------|

Then... - 1:14

e|----------------------------------------------|
B|----------------------------------------------|
G|-----99999--77777--5--------------------------|
D|-----99999--77777--5--------------------------|
A|-----77777--55555--3--------------------------|
E|----------------------------------------------|

Break - 1:20

e|----------------------------------------------|
B|----------------------------------------------|
G|-----99999--77777--555555555------------------|
D|-----99999--77777--555555555------------------| x3
A|-----77777--55555--333333333------------------|
E|----------------------------------------------|

e|----------------------------------------------|
B|----------------------------------------------|
G|-----9--7--5----------------------------------|
D|-----9--7--5----------------------------------| x2
A|-----7--5--3----------------------------------|
E|----------------------------------------------|

Then... - 1:47

e|----------------------------------------------|
B|----------------------------------------------|
G|-------444-555-777----------------------------|
D|----55-444-555-777----------------------------| x2
A|----55-222-333-555----------------------------|
E|----33----------------------------------------|

During the solo... - 1:52

e|----------------------------------------------|
B|----------------------------------------------|
G|----------44444-55555-77777-------------------|
D|----55555-44444-55555-77777-------------------| x4
A|----55555-22222-33333-55555-------------------|
E|----33333-------------------------------------|

Pre-Chorus - 2:12

e|----------------------------------------------|
B|----------------------------------------------|
G|-----5--7--9----------------------------------|
D|-----5--7--9----------------------------------|
A|-----3--5--7----------------------------------|
E|----------------------------------------------|
      
Chorus - 2:15

e|----------------------------------------------|
B|----------------------------------------------|
G|-----55555--77777-----------------------------|
D|-----55555--77777-----------------------------| x2
A|-----33333--55555-----------------------------|
E|----------------------------------------------|

Then... - 2.20

e|----------------------------------------------|
B|----------------------------------------------|
G|-----9--7--5----------------------------------|
D|-----9--7--5----------------------------------|
A|-----7--5--3----------------------------------|
E|----------------------------------------------|

End on... - 2:28

e|----------------------------------------------|
B|----------------------------------------------|
G|----------------------------------------------|
D|--5-------------------------------------------|
A|--5-------------------------------------------|
E|--3-------------------------------------------|


And that's it!

Enjoy! ^_^
comments
We did not receive enough feedback on this tab! Please rate:
print report bad tab
1 2 3 4 5
1 comment total.
0 reply
SabbyBASSious wrote on August 21 2008, 04:47 am

Hey, nice one. Can you send me this song? I think these girls are awesome.

I want to post or [tab]
guest
You may want to rate the tab now too:
select rating
Please do not post tabs as comments. Select "correction" instead!