Oops, an error
Loading. Please wait.

You Broke My Heart Tab

1,215 views 3 this week
no commentswrite comment
1 2 3 4 5
1 last vote to show rating
add to favorites
launch autoscroll
font size
0
reset
how to read this tab
guitar tuner
Autoscroll
slow
fast
+/-
esc
set tempo
stop
Help us to improve Ultimate-Guitar.com Take our survey!
×
Author
Love Bites - You Broke My Heart

This is my first tab and it isn't pefect. Any Corrections... email paulandben@hotmail.com.

x=mute
~=let ring
PM=Palm Mute

Intro

Guitar 1
e|----------------------------------------------|
B|----------------------------------------------|
G|--9-99----------------------------------------|
D|--9-99--99--11-1111--77-----------------------|X4
A|--7-77--99--11-1111--77-----------------------|
E|--------77--9--9-9---55-----------------------|

Guitar 2
e|----------------------------------------------|
B|----------------------------------------------|
G|--1313--11-13-14-11-9-------------------------|
D|--x-x---x--x--x--x--x-------------------------|X2
A|--1111--9--11-12-9--7-------------------------|
E|----------------------------------------------|


Verse

Guitar 1
e|----------------------------------------------|
B|----------------------------------------------|
G|--9-9-9-9-------------------------------------|
D|--9-9-9-9--7-7--9-9---------------------------|X2
A|--7-7-7-7--7-7--9-9---------------------------|
E|-----------5-5--7-7---------------------------|

Guitar 2
e|----------------------------------------------|
B|----------------------------------------------|
G|--9~------------------------------------------|
D|--x~------------------------------------------|X2
A|--7~------------------------------------------|
E|----------------------------------------------|

Guitar 1
e|----------------------------------------------|
B|----------------------------------------------|
G|------------9-9-------------------------------|
D|--7-7--9-9--9-9--7-7--7-7--7-7--9-9-----------|X1
A|--7-7--9-9--7-7--7-7--7-7--7-7--9-9-----------|
E|--5-5--7-7-------5-5--5-5--5-5--7-7-----------|

Guitar 2
e|----------------------------------------------|
B|----------------------------------------------|
G|--14----16----13----14----16------------------|
D|--14-x4-16-x4-13-x4-14-x8-x--x8---------------|X1
A|--12----14----11----12----14------------------|
E|----------------------------------------------|


Chorus 1

Guitar 1
e|----------------------------------------------|
B|----------------------------------------------|
G|--9-------------------------------------------|
D|--9-x8-7----11----9----7----9-----------------|X2
A|--7----7-x8-11-x4-9-x4-7-x4-9-x1--------------|
E|-------5----9-----7----5----7-----------------|

Guitar 2
e|----------------------------------------------|
B|----------------------------------------------|
G|--9-8-9-11-8-9--9-8-9-11-9-11-13~-11~-9-8-9-11|
D|--x-x-x-x--x-x--x-x-x-x--x-x--x-~-x-~-x-x-x-x-|X2
A|--7-6-7-9--6-7--7-6-7-9--7-9--11~-9-~-7-6-7-9-|
E|----------------------------------------------|

Fill

Guitar 1
e|----------------------------------------------|
B|----------------------------------------------|
G|--9-99----------------------------------------|
D|--9-99--99--11-1111--77-----------------------|X4
A|--7-77--99--11-1111--77-----------------------|
E|--------77--9--9-9---55-----------------------|

Verse

Guitar 1
e|----------------------------------------------|
B|----------------------------------------------|
G|--9-9-9-9-------------------------------------|
D|--9-9-9-9--7-7--9-9---------------------------|X2
A|--7-7-7-7--7-7--9-9---------------------------|
E|-----------5-5--7-7---------------------------|

Guitar 2
e|----------------------------------------------|
B|----------------------------------------------|
G|--9~------------------------------------------|
D|--x~------------------------------------------|X2
A|--7~------------------------------------------|
E|----------------------------------------------|

Guitar 1
e|----------------------------------------------|
B|----------------------------------------------|
G|------------9-9-------------------------------|
D|--7-7--9-9--9-9--7-7--7-7--7-7--9-9-----------|X1
A|--7-7--9-9--7-7--7-7--7-7--7-7--9-9-----------|
E|--5-5--7-7-------5-5--5-5--5-5--7-7-----------|

Guitar 2
e|----------------------------------------------|
B|----------------------------------------------|
G|--14----16----13----14----16------------------|
D|--14-x4-16-x4-13-x4-14-x8-x--x8---------------|X1
A|--12----14----11----12----14------------------|
E|----------------------------------------------|

Chorus 2

Guitar 1
e|----------------------------------------------|
B|----------------------------------------------|
G|--9-------------------------------------------|
D|--9-x8-7----11----9----7----9-----------------|X2
A|--7----7-x8-11-x4-9-x4-7-x4-9-x4--------------|
E|-------5----9-----7----5----7-----------------|

Guitar 2
e|-------------------------------------------------------|
B|-------------------------------------------------------|
G|--9-8-9-11-8-9--9-8-9-11-9-11-13~-11~-9-8-9-11-8-9-----|
D|--x-x-x-x--x-x--x-x-x-x--x-x--x-~-x-~-x-x-x-x--x-x-----|X2
A|--7-6-7-9--6-7--7-6-7-9--7-9--11~-9-~-7-6-7-9--6-7-----|
E|-------------------------------------------------------|


Bridge
Part 1

Guitar 1
e|----------------------------------------------|
B|----------------------------------------------|
G|----------------------------------------------|
D|-------77---99--------------------------------|X2
A|--77------------------------------------------|
E|----------------------------------------------|
PM  **   **   **

Part 2

Guitar 1
e|----------------------------------------------|
B|----------------------------------------------|
G|------------9---------------------------------|
D|--7----9----9-x5-5-----9----------------------|X1
A|--7-x5-9-x5-7----5-x10-9-x6-------------------|
E|--5----7---------7-----7----------------------|

Guitar 2
e|--------------------------------------------------------------|
B|--------------------------------------------------------------|
G|--16-14-13-11~-13~-13-14-16-14--13-16-14-13-16-14--1414141414-|
D|--x--x--x--x-~-x-~--x--x--x--x--x--x--x--x--x--x---x-x-x-x-x--|X2
A|--14-12-11-9-~-11~-11-12-14-12--11-14-12-11-14-12--1212121212-|
E|--------------------------------------------------------------|

Chorus 3

Guitar 1
e|----------------------------------------------|
B|----------------------------------------------|
G|--9-------------------------------------------|
D|--9-x8-7----11----9----7----9-----------------|X2
A|--7----7-x8-11-x4-9-x4-7-x4-9-x4--------------|
E|-------5----9-----7----5----7-----------------|

Guitar 2
e|-------------------------------------------------------|
B|-------------------------------------------------------|
G|--9-8-9-11-8-9--9-8-9-11-9-11-13~-11~-9-8-9-11-8-9-----|
D|--x-x-x-x--x-x--x-x-x-x--x-x--x-~-x-~-x-x-x-x--x-x-----|X2
A|--7-6-7-9--6-7--7-6-7-9--7-9--11~-9-~-7-6-7-9--6-7-----|
E|-------------------------------------------------------|

Outro

Both Guitars
e|----------------------------------------------|
B|----------------------------------------------|
G|--9-99----------------------------------------|
D|--9-99--99--11-1111--77-----------------------|X4
A|--7-77--99--11-1111--77-----------------------|
E|--------77--9--9-9---55-----------------------|
Suggest correction
Give kudos to tab author, rate the tab!
1 2 3 4 5
comments
print report bad tab
guest
You may want to rate the tab now too:
select rating
Wanna post a correction for this tab? Suggest correction