Oops, an error
Loading. Please wait.

Bajo El Volcan tab

55 views 6 this week
no commentswrite comment
1 2 3 4 5
3 more votes to show rating
add to favorites
×
Save as Personal and add changes to this tab that will be seen only by you. Learn more ›
×
You can save this tab as Personal to edit and correct it or add notes. All changes will be seen only by you. Learn more »
launch autoscroll
font size
0
reset
how to read this tab
guitar tuner
edit
Autoscroll
slow
fast
+/-
esc
set tempo
stop
[Intro]
C#m    B  (x2)
C#m                             B
Quiero planear  sobre tu tierra estable
C#m                            B
Quisiera regresar a ese viento suave

[Intro riffs]
e|-------4----4----/7p4—7--7/9--7--------|
B|--5------5----5------------------9--9~~|
G|6---6----------------------------------|
D|---------------------------------------|
A|---------------------------------------|
E|---------------------------------------|

e|--------------------------------|------------------------------------|
B|----12--14--14/17---14--12--14--|-----12--14--14/17--17/19---19-19~~-|
G|13------------------------------|--13--------------------------------|
D|--------------------------------|------------------------------------|
A|--------------------------------|------------------------------------|
E|--------------------------------|------------------------------------|

[Verse]
C#m                                 B
Cuando yo solo era brisa, acuérdate bien
                        A
que al no poder mirarme sabía que existía
           B
solo si a ti te podía mover

C#m                                 B
De casi todos mis viajes, de ahí me llevé
                          A
varias canciones de aire, recuerdos de viajes
                 B
que en mares del trópico adquirí

[Instrumental]
e|-------4----4----/7p4—7--7/9--7--------|
B|--5------5----5------------------9--9~~|
G|6---6----------------------------------|
D|---------------------------------------|
A|---------------------------------------|
E|---------------------------------------|

e|--------------------------------|------------------------------------|
B|----12--14--14/17---14--12--14--|-----12--14--14/17--17/19---19-19~~-|
G|13------------------------------|--13--------------------------------|
D|--------------------------------|------------------------------------|
A|--------------------------------|------------------------------------|
E|--------------------------------|------------------------------------|

[Verse]
C#m                                       B
Fue después de veinte inviernos acuérdate bien,
                           A
por las presiones de aire los círculos radiales
        B
se empezaron a expandir

[Pre-Chorus]
C#m                       G#5                         
Mientras tanto tú, tú tan anclada en tus raíces
      F#5                                  B
con esfuerzo percibiste que invertí mi dirección
C#m                               G#5                         
Y de quien siembra vientos que se dice ya lo sabes
      F#5                      B
Solo cuando te quebraste, solo entonces me di cuenta, era yo

[Chorus]
      A                      E
El huracán de una escala descomunal
                  A
crecido en su arrogancia por sí mismo
          B
dio una vuelta en espiral
      A                            E
ese huracán con la luz de lunas de hiel,
                 A
a mil metros del suelo a duras penas
       B
se dio cuenta que arrasó bajo el volcán

        x16                           x18
e|------4----------4-------4----------4--------------|
B|------5----------5-------4----------5--------------|
G|------6----------6-------4----------6--------------|
D|------6----------6-------4----------6--------------|
A|------4----------4-------4----------4--------------|
E|---------------------------------------------------|

[Instrumental]
e|-------4----4----/7p4—7--7/9--7--------|
B|--5------5----5------------------9--9~~|
G|6---6----------------------------------|
D|---------------------------------------|
A|---------------------------------------|
E|---------------------------------------|

e|--------------------------------|------------------------------------|
B|----12--14--14/17---14--12--14--|-----12--14--14/17--17/19---19-19~~-|
G|13------------------------------|--13--------------------------------|
D|--------------------------------|------------------------------------|
A|--------------------------------|------------------------------------|
E|--------------------------------|------------------------------------|

[Verse]
C#m                                            B
Toda sed de comprender cualquier motivo al sin sentido
    A                                B
ha dejado a hombres de ciencia sin salir de sus porques
C#m                                       B
fenómenos del mal, desastres que vienen y van que van, que van,
                   A                      B
que van sucediendo sin aviso fiable o preventiva medición

[Pre-Chorus]
C#m                                   G#5
Tu tierra antes dormida de tu lava se llenó
F#5                       B       
Cerramos aeropuertos, desviamos los aviones del perdón

[Chorus]
A                 E          A         B
Ya no hay nada en mí, Solo restos que destruyen
        A                             E                    A
Y mi huracán de una escala de fuerza seis, crecido en su arrogancia
                       B
a duras penas se dio cuenta que arrasó bajo el volcán
C#m    C     Bm    A#m 
    F#m       B                                
Tu volcán             ni siquiera el mismo diablo lo haría mejor

[Bridge]
(A  E  A  A      B  C#m  B  B) (x4)

[Chorus]
        A                          E                     A
Y el huracán de una escala descomunal, crecido en su arrogancia
                          B
por sí mismo dio una gran vuelta en espiral
       A                            E
Ese huracán quiso huir de su propio ser
                  A                          B
se fue a otras ciudades convencido que a tus islas
   A
le estaba prohibido volver…

[Solo]
e|-------19------------19-----|-----------16----16------19p16---19/21--19---16--16~~-|
B|19b21------19--19b21----19--|----17--------17----17--------------------------------|
G|----------------------------|-18----18---------------------------------------------|
D|----------------------------|------------------------------------------------------|
A|----------------------------|------------------------------------------------------|
E|----------------------------|------------------------------------------------------|

e|------------------------------------------|---------19------------19--------------|
B|--0--2--2/5--2--0--2------0--2--2/5--5/7--|---19b21-----19--19b21-----19—19b21----|
G|1-----------------------1-----------------|---------------------------------------|
D|------------------------------------------|---------------------------------------|
A|------------------------------------------|---------------------------------------|
E|------------------------------------------|---------------------------------------|


************************************

| p  Pull off
| b  Bend
| ~  Vibrato
| /  Slide up

************************************
Suggest correction
Creating personal tab
Creating personal tab
You can edit any tab online and save it as your Personal.

You can edit, replace or remove any tab part or add personal notes – all changes will be seen only by you.

Personal tabs can be accessed anytime from any device, even offline.
Learn more »
Give kudos to tab author, rate the tab!
1 2 3 4 5
comments
print report bad tab
guest
You may want to rate the tab now too:
select rating
Wanna post a correction for this tab? Suggest correction