Oops, an error
Loading. Please wait.
695 views 1 this week
no commentswrite comment
1 2 3 4 5
please rate
add to favorites
launch autoscroll
font size
0
reset
how to read this tab
guitar tuner
Autoscroll
slow
fast
+/-
esc
set tempo
stop
Help us to improve Ultimate-Guitar.com Take our survey!
×
Difficulty
Capo
intermediate
3rd fret
______________________________
Song: Juno
Artist: Love Outside Andromeda
Tabbed by: Daniel Bui
_www.loveoutsideandromeda.com/home/_____________________________

CAPO 3rd Fret on both guitars
All notes relative to capo

========
Guitar 1
========

Verse (Part 1)
"I don't miss you, I woke up and I was clinging to..."
"I don't miss you, or your vacant places..."
"I don't miss you and I'm never ever going to miss you..."
"I'll compose myself and I'll push you right over..."

|-------7-----|-------------|-2---3---2---|----------------|
|-0-------5---|-0---8---5---|---0---0---0-|-0--------------|
|---0-------0-|---0---0---0-|-------------|---0------------|
|-------------|-------------|-0---0---0---|-----------9----|
|-7---7-7-----|-------------|-------------|-7---7-------10-|
|-------------|-8---8---8---|-------------|----------------|

Interlude
|-0--0--0--0--|-------2--3--|
|-0--0--0--0--|-1--0--3--3--|
|-0--0--0--0--|-2--2--------|
|-2--2--2--2--|-------------|
|-2--2--2--2--|-------------|
|-0--0--0--0--|-------------|


Verse (part 2)
"And I keep holding on..."
"I have such trouble letting go..."

|-3-------3---|-3-------3---|-7---8---7---|-3---5---3------|
|-----5-----5-|-----5-----5-|---0---0---0-|---0---0---0----|
|-5-5---5-5---|-5-5---5-5---|-------------|----------------|
|-------------|-------------|-5---5---5---|-0---0---0------|
|-------------|-------------|-------------|----------------|
|-------------|-------------|-------------|----------------|

Distorted Verse (Strumming pattern not indicated)
|-0--0--0--0--|
|-0--0--3--0--| "No, I composed myself for you..."
|-0--0--2--0--|
|-2--2--0--2--|
|-2--2-----2--|
|-0--0-----2--|

Break (Strumming pattern not indicated)

|-0--0--0--0--|-------2--3--|
|-0--0--3--3--|-1--0--3--3--|
|-0--0--2--2--|-2--2--------|
|-2--2--0--0--|-------------|
|-2--2--------|-------------|
|-0--0--------|-------------|

_______________________________________________________________________________

========
Guitar 2
========

Lead (Part 1)
|-7---7-------------5---------------------------7-5--------------7--5-----------------7-----5---|
|---5-------------------------5---------------------7---------0--------5----------0-5-----------|
|-----------------------------------------------------------------------------------------------|
|-----------------------------------------------------------------------------------------------|
|-----------------------------------------------------------------------------------------------|
|-----------------------------------------------------------------------------------------------|

Lead (Part 2)

       Repeat this
|=======================|
|------------------------------|---7-7---7---|------7---5------|---7-7---7---|------7--|
|-3-5-3-5-3-5-3-5-3-5--5-3--0--|---5-5---5---|--0-5---------5--|---5-5---5---|--0-5----|
|------------------------------|---4-4---4---|-----------------|---4-4---4---|---------|
|------------------------------|---5-5---5---|-----------------|---5-5---5---|---------|
|------------------------------|-------------|-----------------|-------------|---------|
|------------------------------|-------------|-----------------|-------------|---------|

Lead Distorted Verse
|-----------------------------------------------------------------------------------|
|--5--5--5p3--5--5--5p3--3--3--3s10--8--7s12---12--12--12---15-15-15-15---15-17-17--|
|-----------------------------------------------------------------------------------|
|-----------------------------------------------------------------------------------|
|-----------------------------------------------------------------------------------|
|-----------------------------------------------------------------------------------|

Lead Break
|----------------------------------------------------------------------------------|
|----------------------------------------------------------------------------------|
|--9-9---9-9-9-9-9---9-9-9-7-7---7-7-7-7-7---7-7-7-5-5---5-5-5-4-4---4-4-4-11-11---|
|----------------------------------------------------------------------------------|
|----------------------------------------------------------------------------------|
|----------------------------------------------------------------------------------|

----------------------|
----------------------|
-11-11-11-12----12--9-|
----------------------|
----------------------|
----------------------|

Lead Final Verse
|-----|
|-----|
|-----|
|-9s2-|
|-----|
|-----|


==================================================================================
==================================================================================

Progression

Verse (Part 1) x 7
Interlude
Verse (Part 1) x 4 + Lead (Part 1)
Verse (Part 2) x 4 + Lead (Part 2 on last repeat)
Verse (Part 1) x 6 + Remainder of Part 2
Verse (Part 2) x 4
Dist Verse     x 4 + Lead Dist Vers (Play on 3rd line)
Break          x 2 + Lead Break x 2
Verse (part 1) x 4 + Lead Final Verse (Play on 2nd line)
Suggest correction
Give kudos to tab author, rate the tab!
1 2 3 4 5
comments
print report bad tab
guest
You may want to rate the tab now too:
select rating
Please do not post tabs as comments. Select "correction" instead!