Oops, an error
Loading. Please wait.

Waltz Tab

1,347 views 1 this week
no commentswrite comment
1 2 3 4 5
please rate
add to favorites
launch autoscroll
font size
0
reset
how to read this tab
guitar tuner
Autoscroll
slow
fast
+/-
esc
set tempo
stop
Help us to improve Ultimate-Guitar.com Take our survey!
×
Difficulty
intermediate
Waltz - LOVE PSYCHEDELICO
Tabbed by Michael Tran
Dedicated to Erika Cruz

I'm 99% sure this is correct, it would really help if you played along with the song ;D. 
Have fun playing!

*NOTE*!!!: I might have messed up the repeats cause i was lazy :P

Chords:
          A              Bm7                               REPEAT 3x
e|---------------------------------------------------------------|
B|---------------------------------------------------------------|
G|------------2----------2---------------------------------------|
D|---------2----------4------------------------------------------|
A|------0----------2---------------------------------------------|
E|---------------------------------------------------------------|

Ride on, ride
Towa ni atta life
Ame wa arifureta...

         C#m7         F#7        D          E              REPEAT 2x
e|---------------------------------------------------------------|
B|----------------------------------3----------------------------|
G|------------4----------3-------2-------------1-----------------|
D|---------6----------2-------0-------------2--------------------|
A|------4----------4---------------------2-----------------------|
E|---------------------------------------------------------------|

love
every time nobody calls my name
Ai shita sa nobody calls my name...

          A              Bm7                               REPEAT 4x
e|---------------------------------------------------------------|
B|---------------------------------------------------------------|
G|------------2----------2---------------------------------------|
D|---------2----------4------------------------------------------|
A|------0----------2---------------------------------------------|
E|---------------------------------------------------------------|

On your lips, on your lips
Yukedo naki by your side
Sore wa stay hitori ukanderu wa...

         C#m7         F#7        D          E              REPEAT 2x
e|---------------------------------------------------------------|
B|----------------------------------3----------------------------|
G|------------4----------3-------2-------------1-----------------|
D|---------6----------4-------0-------------2--------------------|
A|------4----------4---------------------2-----------------------|
E|---------------------------------------------------------------|

mind
everyone please don't close your eyes
everyone please don't close your...

          A          A-5         Asus       ?
e|----------------------------------------------------------------|
B|----------------------------------------------------------------|
G|------------2----------2----------2----------2------------------|
D|---------2----------1----------0----------2---------------------|
A|------0----------0----------0----------4------------------------|
E|----------------------------------------------------------------|

eyes...
Sentence in clouds...

          A          A-5         A (Strum)
e|-------------------------------0--------------------------------|
B|-------------------------------2--------------------------------|
G|------------2----------2-------2--------------------------------|
D|---------2----------1----------2--------------------------------|
A|------0----------0-------------0--------------------------------|
E|-------------------------------0--------------------------------|

         D       E        A                                 REPEAT 2x
e|-------2-------0--------0---------------------------------------|
B|-------3-------0--------2---------------------------------------|
G|-------2-------1--------2---------------------------------------|
D|-------0-------2--------2---------------------------------------|
A|-------0-------2--------0---------------------------------------|
E|-------0-------0--------0---------------------------------------|

And the radio turns on, so I
Ima saiai no kimi yo good-bye

         F#     F#m7     On      B
e|-------2-------2-------2-------0--------------------------------|
B|-------2-------2-------2-------4--------------------------------|
G|-------2-------2-------2-------4--------------------------------|
D|-------4-------3-------2-------4--------------------------------|
A|-------4-------4-------2-------2--------------------------------|
E|-------2-------2-------2-------0--------------------------------|

Kimi wo ima omou mienai kurai
Kaze ni naru you ni sway

         D       E        F#
e|-------2-------0--------2---------------------------------------|
B|-------3-------0--------2---------------------------------------|
G|-------2-------1--------3---------------------------------------|
D|-------0-------2--------4---------------------------------------|
A|-------0-------2--------4---------------------------------------|
E|-------0-------0--------2---------------------------------------|

ride on, ride

          A              Bm7                                 REPEAT 4x
e|---------------------------------------------------------------|
B|---------------------------------------------------------------|
G|------------2----------2---------------------------------------|
D|---------2----------4------------------------------------------|
A|------0----------2---------------------------------------------|
E|---------------------------------------------------------------|

Knock, unknock
Mune wa skyai wa swing
Suki na hibi ga utsurisumu...

        C#m7         F#7        D          E              REPEAT 2x
e|---------------------------------------------------------------|
B|----------------------------------3----------------------------|
G|------------4----------3-------2-------------1-----------------|
D|---------6----------2-------0-------------2--------------------|
A|------4----------4---------------------2-----------------------|
E|---------------------------------------------------------------|

greendrake
varying with every change of light
Itsu kara ka every change of...

          A          A-5         Asus                        REPEAT 3x
e|----------------------------------------------------------------|
B|----------------------------------------------------------------|
G|------------2----------2----------2-----------------------------|
D|---------2----------1----------0--------------------------------|
A|------0----------0----------0-----------------------------------|
E|----------------------------------------------------------------|

life
Sentence in clouds
over the line
          A          A (Strum)
e|-------------------0--------------------------------------------|
B|-------------------2--------------------------------------------|
G|------------2------2--------------------------------------------|
D|---------2---------2--------------------------------------------|
A|------0------------0--------------------------------------------|
E|-------------------0--------------------------------------------|

free as the sky

        D       E        A                                 REPEAT 2x
e|-------2-------0--------0---------------------------------------|
B|-------3-------0--------2---------------------------------------|
G|-------2-------1--------2---------------------------------------|
D|-------0-------2--------2---------------------------------------|
A|-------0-------2--------0---------------------------------------|
E|-------0-------0--------0---------------------------------------|

then radio turns on, so I
Ima saiai no kimi yo good-bye

         F#     F#m7     On      B
e|-------2-------2-------2-------0--------------------------------|
B|-------2-------2-------2-------4--------------------------------|
G|-------2-------2-------2-------4--------------------------------|
D|-------4-------3-------2-------4--------------------------------|
A|-------4-------4-------2-------2--------------------------------|
E|-------2-------2-------2-------0--------------------------------|

Kimi wo ima omou mienai kurai
Kaze ni naru you ni sway

         D       E        F#
e|-------2-------0--------2---------------------------------------|
B|-------3-------0--------2---------------------------------------|
G|-------2-------1--------3---------------------------------------|
D|-------0-------2--------4---------------------------------------|
A|-------0-------2--------4---------------------------------------|
E|-------0-------0--------2---------------------------------------|

ride on, ride

         A              Bm7                               REPEAT 7x
e|---------------------------------------------------------------|
B|---------------------------------------------------------------|
G|------------2----------2---------------------------------------|
D|---------2----------4------------------------------------------|
A|------0----------2---------------------------------------------|
E|---------------------------------------------------------------|

Ride on, ride
Towa ni atta life
Kimi kara wa tsutaenakute...

         C#m7         F#7        D          E              REPEAT 2x
e|---------------------------------------------------------------|
B|----------------------------------3----------------------------|
G|------------4----------3-------2-------------1-----------------|
D|---------6----------2-------0-------------2--------------------|
A|------4----------4---------------------2-----------------------|
E|---------------------------------------------------------------|

far
every time nobody calls my name
Ai shita sa nobody calls my name

         A
e|--------------------------------------------------------------|
B|--------------------------------------------------------------|
G|------------2-------------------------------------------------|
D|---------2----------------------------------------------------|
A|------0-------------------------------------------------------|
E|--------------------------------------------------------------|

        D       E        A                                 REPEAT 2x
e|-------2-------0--------0---------------------------------------|
B|-------3-------0--------2---------------------------------------|
G|-------2-------1--------2---------------------------------------|
D|-------0-------2--------2---------------------------------------|
A|-------0-------2--------0---------------------------------------|
E|-------0-------0--------0---------------------------------------|

the radio turns on, so I
Ima saiai no kimi yo good-bye

         F#     F#m7     On      B
e|-------2-------2-------2-------0--------------------------------|
B|-------2-------2-------2-------4--------------------------------|
G|-------2-------2-------2-------4--------------------------------|
D|-------4-------3-------2-------4--------------------------------|
A|-------4-------4-------2-------2--------------------------------|
E|-------2-------2-------2-------0--------------------------------|

Kimi wo ima omou mienai kurai
Uta ni naru better days

         D       E        F#
e|-------2-------0--------2---------------------------------------|
B|-------3-------0--------2---------------------------------------|
G|-------2-------1--------3---------------------------------------|
D|-------0-------2--------4---------------------------------------|
A|-------0-------2--------4---------------------------------------|
E|-------0-------0--------2---------------------------------------|

ride on, ride

        D       E        A                                 REPEAT 2x
e|-------2-------0--------0---------------------------------------|
B|-------3-------0--------2---------------------------------------|
G|-------2-------1--------2---------------------------------------|
D|-------0-------2--------2---------------------------------------|
A|-------0-------2--------0---------------------------------------|
E|-------0-------0--------0---------------------------------------|

And the radio turns on, so I
Ima saiai no kimi yo good-bye

         C#m7         F#7        D          E              REPEAT 2x
e|---------------------------------------------------------------|
B|----------------------------------3----------------------------|
G|------------4----------3-------2-------------1-----------------|
D|---------6----------4-------0-------------2--------------------|
A|------4----------4---------------------2-----------------------|
E|---------------------------------------------------------------|

everyone please don't close your eyes
everyone please don't close...

         A           F#7
e|---------------------------------------------------------------|
B|---------------------------------------------------------------|
G|------------2----------3---------------------------------------|
D|---------2----------4------------------------------------------|
A|------0----------4---------------------------------------------|
E|---------------------------------------------------------------|

your eyes

           E        C#m7        F#7
e|----------------------------------------------------------------|
B|----------------------------------------------------------------|
G|------------1----------4----------3-----------------------------|
D|---------2----------6----------4--------------------------------|
A|------2----------4----------4-----------------------------------|
E|----------------------------------------------------------------|

sentence in clouds

           D        E           D
e|----------------------------------------------------------------|
B|------------3--------------------3------------------------------|
G|---------2------------1-------2---------------------------------|
D|------0------------2-------0------------------------------------|
A|----------------2-----------------------------------------------|
E|----------------------------------------------------------------|

nobody calls my name

         A              Bm7                               REPEAT 3x
e|---------------------------------------------------------------|
B|---------------------------------------------------------------|
G|------------2----------2---------------------------------------|
D|---------2----------4------------------------------------------|
A|------0----------2---------------------------------------------|
E|---------------------------------------------------------------|

         A
e|--------------------|
B|--------------------|
G|------------2-------|
D|---------2----------|
A|------0-------------|
E|--------------------|

End
Suggest correction new What's this?
You can suggest a correction to this tab. Community and Mods will review your correction and vote to approve or reject it.
comments
We did not receive enough feedback on this tab! Please rate:
print report bad tab
1 2 3 4 5
guest
You may want to rate the tab now too:
select rating
Please do not post tabs as comments. Select "correction" instead!