Oops, an error
Loading. Please wait.

December Nights Tab

348 views 1 this week
no commentswrite comment
1 2 3 4 5
please rate
add to favorites
launch autoscroll
font size
0
reset
how to read this tab
guitar tuner
Autoscroll
slow
fast
+/-
esc
set tempo
stop
Help us to improve Ultimate-Guitar.com Take our survey!
×
Author
Love, She Wrote- December Nights

Standard Tuning

Intro (Clean)

|----------------------------------------------------|
|----------------------------------------------------|
|-777777777777-444444444444--------------------------|
|-777777777777-444444444444-555555555555555555555555-|
|-555555555555-222222222222-555555555555555555555555-|
|---------------------------333333333333333333333333-|

|------------------------------|
|------------------------------|
|-777777777777-444444444444----|
|-777777777777-444444444444-5~-|
|-555555555555-222222222222-5~-|
|---------------------------3~-|


Intro Cont. (Distortion)

|--------------------------------------------------|
|--------------------------------------------------|
|-777777777777--------------12-11-9-7-14-12-11-9-7-|
|-777777777777-999999999999-12-11-9-7-14-12-11-9-7-|
|-555555555555-999999999999-10-9--7-5-12-10-9--7-5-|
|--------------777777777777------------------------|


Verse

|----------------------------------------------------------------------|
|----------------------------------------------------------------------|
|-7-777777777777777----------------------------------------------------|
|-7-777777777777777-7777777777777777-9999999999999999-5555555555555555-|
|-5-555555555555555-7777777777777777-9999999999999999-5555555555555555-|
|-------------------5555555555555555-7777777777777777-3333333333333333-|
    p.m...............................................................

|----------------------------------------------------------------------|
|----------------------------------------------------------------------|
|-7-777777777777777----------------------------------------------------|
|-7-777777777777777-7777777777777777-9999999999999999-5555555555555555-|
|-5-555555555555555-7777777777777777-9999999999999999-5555555555555555-|
|-------------------5555555555555555-7777777777777777-3333333333333333-|
     ......................................................... . .. ..


Pre-Chorus

|------------------------|
|------------------------|
|------------------------|
|-7~---9~---7~---5~---xx-|
|-7~---9~---7~---5~---xx-|
|-5~---7~---5~---3~---xx-|


Chorus

|----------------------------------------------------|
|----------------------------------------------------|
|-777777777777---------------------------------------|
|-777777777777-999999999999-555555555555555555555555-|
|-555555555555-999999999999-555555555555555555555555-|
|--------------777777777777-333333333333333333333333-|

|------------------------------|
|------------------------------|
|-777777777777-----------------|
|-777777777777-999999999999-5~-|
|-555555555555-999999999999-5~-|
|--------------777777777777-3~-|


Verse

Pre-Chorus

Chorus

Bridge
|-----------------------------------|
|-----------------------------------|
|-4~---7~------------4~---7~--------|
|-4~---7~---5~-------4~---7~---5~---|
|-2~---5~---5~-------2~---5~---5~---|
|-----------3~-----------------3~---|

|----------------------------------------------------------------------------|
|----------------------------------------------------------------------------|
|-4-4444444444444444--7-7777777777777777-------------------------------------|
|-4-4444444444444444--7-7777777777777777--5-55555555555555555555555555555555-|
|-2-2222222222222222--5-5555555555555555--5-55555555555555555555555555555555-|
|-----------------------------------------3-33333333333333333333333333333333-|
    ................    ................    ................................

|----------------------------------------------------------------------------------|
|----------------------------------------------------------------------------------|
|4444444444444444-7777777777777777-----------------------------------4~------------|
|4444444444444444-7777777777777777-55555555555555555555555555555555--4~---77777777-|
|2222222222222222-5555555555555555-55555555555555555555555555555555--2~---77777777-|
|----------------------------------33333333333333333333333333333333-------55555555-|

Chorus

End On

|----|
|----|
|-7~-|
|-7~-|
|-5~-|
|----|
Suggest correction
Give kudos to tab author, rate the tab!
1 2 3 4 5
comments
print report bad tab
guest
You may want to rate the tab now too:
select rating
Please do not post tabs as comments. Select "correction" instead!