Oops, an error
Loading. Please wait.

That Girl Is Fierce Tab

516 views 1 this week
no commentswrite comment
1 2 3 4 5
please rate
add to favorites
launch autoscroll
font size
0
reset
how to read this tab
guitar tuner
Autoscroll
slow
fast
+/-
esc
set tempo
stop
Help us to improve Ultimate-Guitar.com Take our survey!
×
Author
Hey guys. There's no tabs by these guys yet so i decided to go head and tab this one out.
It's a pretty awesome song so if you haven't heard it yet you should check it out. 
http://www.myspace.com/loveshewrote
Here it is.

That Girl is Fierce- Love, She Wrote
off the album Oh! And About Last Night...
Standard Tuning

Intro
|-------------------------------------|
|-------------------------------------|
|---6----6-----6---6-----3---3--------|
|--6-6--6-6---6-6-6-6---3-3-3-3--4--4-|
|-4----4---------------1---1----4-4-4-|
|------------4---4-------------2----2-|


Verse pt.1
|---------------------------------------------------------------------|
|---------------------------------------------------------------------|
|-6666666666666666------------------3333333333333333------------------|
|-6666666666666666-6666666666666666-3333333333333333-4444444444444444-|
|-4444444444444444-6666666666666666-1111111111111111-4444444444444444-|
|------------------4444444444444444------------------2222222222222222-|
  p.m.................................................................


Verse pt. 2
|-----------------------------------------------------------------------|
|-----------------------------------------------------------------------|
|-----------------------------------------------------------------------|
|-66-6-66-6-66-6-66-6-88-8-88-8-88-8-88-8-33-3-33-3-33-3-33-3-444444444-|
|-66-6-66-6-66-6-66-6-88-8-88-8-88-8-88-8-33-3-33-3-33-3-33-3-444444444-|
|-44-4-44-4-44-4-44-4-66-6-66-6-66-6-66-6-11-1-11-1-11-1-11-1-222222222-|
p.m.   ..   ..   ..   ..   ..   ..   ..   ..   ..   ..   ..  


chorus
|----------------------------------------------------|
|----------------------------------------------------|
|-666666-----------------------666666----------------|
|-666666-666666-888888-444444--666666-666666-444444--|
|-444444-666666-888888-444444--444444-666666-444444--|
|--------444444-666666-222222---------444444-222222--|

|------------------------------------------------|
|------------------------------------------------|
|-666666-----------------------666666------------|
|-666666-666666-888888-444444--666666-666666-4~--|
|-444444-666666-888888-444444--444444-666666-4~--|
|--------444444-666666-222222---------444444-2~--|



Verse pt.1(x2)
play first chord of each set open second time

Verse pt.2

Chorus

Bridge
|-------------------------------------|
|-------------------------------------|
|-------------------6666--------------|
|-88888888-44444444-66666666-44444444-|
|-88888888-44444444-44446666-44444444-|
|-66666666-22222222-----4444-22222222-|

|-------------------------------------|
|-------------------------------------|
|-------------------6666--------------|
|-88888888-44444444-66664444-66666666-|
|-88888888-44444444-44444444-66666666-|
|-66666666-22222222-----2222-44444444-|


Chorus till End

End with
|--------|
|--------|
|-6~-----|
|-6~6~4~-|
|-4~6~4~-|
|---4~2~-|

There you have it. 
I'm almost positive it's right but if you have any suggestions or corrections drop me a comment

   -Cappie
Suggest correction
Give kudos to tab author, rate the tab!
1 2 3 4 5
comments
print report bad tab
guest
You may want to rate the tab now too:
select rating
Wanna post a correction for this tab? Suggest correction