Oops, an error
Loading. Please wait.

Straight As An Arrow bass

135 views 1 this week
no commentswrite comment
1 2 3 4 5
3 more votes to show rating
add to favorites
×
Save as Personal and add changes to this tab that will be seen only by you. Learn more ›
×
You can save this tab as Personal to edit and correct it or add notes. All changes will be seen only by you. Learn more »
launch autoscroll
font size
0
reset
guitar tuner
edit
Autoscroll
slow
fast
+/-
esc
set tempo
stop
Author
**This is the fixed version of the previous tab that wasn't printed right**
Straight As An Arrow, By MC and Lovehammers

The bass starts at about 0:16 seconds, entering with the drums.
Main Riff:
G|---------------------|---------------------|---------------------|---------------------|
D|---------------------|---------------------|---------------------|---------------------|
A|--3-3------------6-6-|--3-3------------6-6-|--3-3------------6-6-|--3-3------------6-6-|
E|-------3-3--4-4------|-------3-3--4-4------|-------3-3--4-4------|-------3-3--4-4------|

Verse:     "My sight.. is 20/20...."
G|---------------------|---------------------|
D|---------------------|---------------------|     Play those two lines
A|--3-3------------6-6-|--3-3------------6-6-|           8 times
E|-------3-3--4-4------|-------3-3--4-4------|

Pre-Chorus:
G|-----------------------------------------------------------------------|
D|-----------------------------------------------------------------------|
A|--3-3-3-3-5-5-5-5-6-6-6-6-8-8-8-8-10-10-10-10-8-8-8-8-6-6-6-6-5-5-5-5--|
E|-----------------------------------------------------------------------|
      ^^Those^^ are 16th notes (played 1 e & a 2 e & a 3 e & a 4 e & a)

Chorus:          "Straight As An Arrow..."
G|-------------------------------|-------------------------------|-------------------------------|
D|-------------------------------|-------------------------------|-------------------------------|
A|------6-66(1)-3333333333333333-|------6-66(1)-3333333333333333-|------6-66(1)-3333333333333333-|
E|-4-44--------------------------|-4-44--------------------------|-4-44--------------------------|

Play This Into The Main Verse:
G|--------|
D|--------|
A|--------|
E|-4--3-1-|

Repeat Main Riff:
G|---------------------|---------------------|
D|---------------------|---------------------|     Play Those Two Lines
A|--3-3------------6-6-|--3-3------------6-6-|           8 times
E|-------3-3--4-4------|-------3-3--4-4------|

Then Play This:
G|---------------------------------|---------------------------------|
D|---------------------------------|---------------------------------|
A|-3-3-3-3-5-5-5-5-6-6-6-6-8-8-8-8-|-3-3-3-3-5-5-5-5-6-6-6-6-8-8-8-8-|
E|---------------------------------|---------------------------------|
   Yet Again ^^Those^^ Are 16th notes

G|---------------------------------------------------------------------|
D|---------------------------------------------------------------------|
A|-3-3-3-3-5-5-5-5-6-6-6-6-8-8-8-8-10-10-10-10-8-8-8-8-6-6-6-6-5-5-5-5-|
E|---------------------------------------------------------------------|
   You Mighta Guessed, But ^^Those^^ are 16th notes, too.

Back Into The Chorus:
G|---------------------------------|-------------------------------|-------------------------------|
D|---------------------------------|-------------------------------|-------------------------------|
A|--------6-66(1)-3333333333333333-|------6-66(1)-3333333333333333-|------6-66(1)-3333333333333333-|
E|-4-44----------------------------|-4-44--------------------------|-4-44--------------------------|

Fall Into The Solo:
G|--------|
D|--------|
A|--------|
E|-4--3-1-|

Bass During Solo (Main Riff):
G|---------------------|---------------------|---------------------|---------------------|
D|---------------------|---------------------|---------------------|---------------------|
A|--3-3------------6-6-|--3-3------------6-6-|--3-3------------6-6-|--3-3------------6-6-|
E|-------3-3--4-4------|-------3-3--4-4------|-------3-3--4-4------|-------3-3--4-4------|

Next, It's the Pre-Chorus Again:
G|---------------------------------|---------------------------------|
D|---------------------------------|---------------------------------|
A|-3-3-3-3-5-5-5-5-6-6-6-6-8-8-8-8-|-3-3-3-3-5-5-5-5-6-6-6-6-8-8-8-8-|
E|---------------------------------|---------------------------------|

G|---------------------------------------------------------------------|
D|---------------------------------------------------------------------|
A|-3-3-3-3-5-5-5-5-6-6-6-6-8-8-8-8-10-10-10-10-8-8-8-8-6-6-6-6-5-5-5-5-|
E|---------------------------------------------------------------------|

Chorus:    "Straight As an Arrow..."
G|---------------------------------|-------------------------------|-------------------------------|
D|---------------------------------|-------------------------------|-------------------------------|
A|--------6-66(1)-3333333333333333-|------6-66(1)-3333333333333333-|------6-66(1)-3333333333333333-|
E|-4-44----------------------------|-4-44--------------------------|-4-44--------------------------|

G|-------------------------------------------------|
D|-------------------------------------------------|
A|--------3333333333333333--------3333333333333333-|
E|-4--3-1------------------4--3-1------------------|

Here's The Outro: "La, la la la la........so what, so what."
G|------------------------------------------------------------------------------------------------------|
D|------------------------------------------------------------------------------------------------------|
A|-------------3-3-3-3-5-5-5-5-6-6-6-6-8-8-8-8----------------------------------------------------------|
E|-4--4-3-3-1----------------------------------4--4-3--1-3----4--4-3--1-1----4--4-3--1-1----4--4-3--1-3-|

   The ending you can sorta make up, but the 3-5-6-8 part is right.

Another great MC and Lovehammers song. Enjoy my tab, but gimme a break, I'm 13 and this 
only my 2nd tab (you're welcome for the Trees tab). Feel free to leave any comments. 
I'll take requests for Lovehammers tabs at my email, juicebox93@hotmail.com.

Thanks and go rock out witcha bad self.

            
            
Suggest correction
Creating personal tab
Creating personal tab
You can edit any tab online and save it as your Personal.

You can edit, replace or remove any tab part or add personal notes – all changes will be seen only by you.

Personal tabs can be accessed anytime from any device, even offline.
Learn more »
Give kudos to tab author, rate the tab!
1 2 3 4 5
comments
print report bad tab
guest
You may want to rate the tab now too:
select rating
Wanna post a correction for this tab? Suggest correction