Oops, an error
Loading. Please wait.

Trees bass

600 views 1 this week
1 commentread comment
1 2 3 4 5
1 last vote to show rating
add to favorites
×
Save as Personal and add changes to this tab that will be seen only by you. Learn more ›
×
You can save this tab as Personal to edit and correct it or add notes. All changes will be seen only by you. Learn more »
launch autoscroll
font size
0
reset
guitar tuner
edit
Autoscroll
slow
fast
+/-
esc
set tempo
stop
Tuning: Standard(EADG)
From the CD Marty Casey and Lovehammers

Bass Enters Here: (We, we make believe.....)
G|----------------------------------------------------------------|
D|----------------------------------------------------------------|
A|----------------------------------------------------------------|
E|-1-1-1-1-1-1-1-1-1-1-1-1-1-1-1-1-5-5-5-5-5-5-5-5-5-5-5-5-5-5-5-5|

           (....in a world we rule, together)
G|----------------------------------------------------------------|
D|----------------------------------------------------------------|
A|-5-5-5-5-5-5-5-5-5-5-5-5-5-5-5-5--------------------------------|
E|---------------------------------6-6-6-6-6-6-6-6-6-6-6-6-6-6-6-6|

          (And we can build our dreams.....)
G|----------------------------------------------------------------|
D|----------------------------------------------------------------|
A|----------------------------------------------------------------|
E|-1-1-1-1-1-1-1-1-1-1-1-1-1-1-1-1-5-5-5-5-5-5-5-5-5-5-5-5-5-5-5-5|

          (....with a knot tied tight, to last forever)
G|----------------------------------------------------------------|
D|----------------------------------------------------------------|
A|-5-5-5-5-5-5-5-5-5-5-5-5-5-5-5-5--------------------------------|
E|---------------------------------6-6-6-6-6-6-6-6-6-6-6-6-6-6-6-6|

Chorus:   (It'll be you, and me....up in, the trees)
G|----------------------------------------------------------------|
D|----------------------------------------------------------------|
A|----------------------------------------------------------------|
E|-1-1-1-1-1-1-1-1-1-1-1-1-1-1-1-1-5-5-5-5-5-5-5-5-5-5-5-5-5-5-5-5|

          (And the forest will give us the answers)
G|----------------------------------------------------------------|
D|----------------------------------------------------------------|
A|-5-5-5-5-5-5-5-5-5-5-5-5-5-5-5-5--------------------------------|
E|---------------------------------6-6-6-6-6-6-6-6-6-6-6-6-6-6-6-6|

         (It'll be you, and I....up in, the sky)
G|----------------------------------------------------------------|
D|----------------------------------------------------------------|
A|----------------------------------------------------------------|
E|-1-1-1-1-1-1-1-1-1-1-1-1-1-1-1-1-5-5-5-5-5-5-5-5-5-5-5-5-5-5-5-5|

         (It's a combination for disaster)
G|----------------------------------------------------------------|
D|----------------------------------------------------------------|
A|-5-5-5-5-5-5-5-5-5-5-5-5-5-5-5-5--------------------------------|
E|---------------------------------6-6-6-6-6-6-6-6-6-6-6-6-6-6-6-6|

After that: (Yeah, yeah, yeah, yeah, yeah, yeah)
G|----------------------------------------------------------------|
D|----------------------------------------------------------------|
A|---------------------------------1-1-1-1-1-1-1-1-1-1-1-1-1-1-1-1|
E|-3-3-3-3-3-3-3-3-3-3-3-3-3-3-3-3--------------------------------|

          (We got one shot, so let's use our imaginations)
G|----------------------------------------------------------------|
D|----------------------------------------------------------------|
A|---------------------------------3-3-3-3-3-3-3-3-3-3-3-3-3-3-3-3|
E|-1-1-1-1-1-1-1-1-1-1-1-1-1-1-1-1--------------------------------|

          (Yeah, yeah, yeah, yeah, yeah, yeah)
G|----------------------------------------------------------------|
D|----------------------------------------------------------------|
A|---------------------------------1-1-1-1-1-1-1-1-1-1-1-1-1-1-1-1|
E|-3-3-3-3-3-3-3-3-3-3-3-3-3-3-3-3--------------------------------|

          (You're all that I've got, so where do we go from here)
G|----------------------------------------------------------------|
D|----------------------------------------------------------------|
A|---------------------------------3-3-3-3-3-3-3-3-3-3-3-3-3-3-3-3|
E|-1-1-1-1-1-1-1-1-1-1-1-1-1-1-1-1--------------------------------|


Bass During Solo:
G|----------------------------------------------------------------|
D|----------------------------------------------------------------|
A|---------------------------------1-1-1-1-1-1-1-1-1-1-1-1-1-1-1-1|
E|-3-3-3-3-3-3-3-3-3-3-3-3-3-3-3-3--------------------------------|

G|----------------------------------------------------------------|
D|---------------------------------3-3-3-2-2-2-0-0-0--------------|
A|--------------------------------------------------3-3-3-1-1-0-0-|
E|-1-1-1-1-1-1-1-1-1-1-1-1-1-1-1-1--------------------------------|

Back To Chorus: (It'll be you, and me....up in, the trees...)
G|----------------------------------------------------------------|
D|----------------------------------------------------------------|
A|----------------------------------------------------------------|
E|-1-1-1-1-1-1-1-1-1-1-1-1-1-1-1-1-5-5-5-5-5-5-5-5-5-5-5-5-5-5-5-5|

             (...and the forest will give us the answer)
G|----------------------------------------------------------------|
D|----------------------------------------------------------------|
A|-5-5-5-5-5-5-5-5-5-5-5-5-5-5-5-5--------------------------------|
E|---------------------------------6-6-6-6-6-6-6-6-6-6-6-6-6-6-6-6|

             (It'll be you, and I....up in, the sky...)
G|----------------------------------------------------------------|
D|----------------------------------------------------------------|
A|----------------------------------------------------------------|
E|-1-1-1-1-1-1-1-1-1-1-1-1-1-1-1-1-5-5-5-5-5-5-5-5-5-5-5-5-5-5-5-5|

            (...it's a combination for disaster)
G|----------------------------------------------------------------|
D|----------------------------------------------------------------|
A|-5-5-5-5-5-5-5-5-5-5-5-5-5-5-5-5--------------------------------|
E|---------------------------------6-6-6-6-6-6-6-6-6-6-6-6-6-6-6-6|

Last:      (I know, there's more for us in this life...)
G|----------------------------------------------------------------|
D|----------------------------------------------------------------|
A|---------------------------------1-1-1-1-1-1-1-1-1-1-1-1-1-1-1-1|
E|-3-3-3-3-3-3-3-3-3-3-3-3-3-3-3-3--------------------------------|

          (...if we hold on, if we hold strong)
G|----------------------------------------------------------------|
D|----------------------------------------------------------------|
A|---------------------------------3-3-3-3-3-3-3-3-3-3-3-3-3-3-3-3|
E|-1-1-1-1-1-1-1-1-1-1-1-1-1-1-1-1--------------------------------|

          (I know, there's more for us in this life...)
G|----------------------------------------------------------------|
D|----------------------------------------------------------------|
A|---------------------------------1-1-1-1-1-1-1-1-1-1-1-1-1-1-1-1|
E|-3-3-3-3-3-3-3-3-3-3-3-3-3-3-3-3--------------------------------|

          (...can we hold on, can we hold on)
G|----------------------------------------------------------------|
D|----------------------------------------------------------------|
A|---------------------------------3-3-3-3-3-3-3-3-3-3-3-3-3-3-3-3|
E|-1-1-1-1-1-1-1-1-1-1-1-1-1-1-1-1--------------------------------|

Outro:
G|----------------------------------------------------------------|
D|----------------------------------------------------------------|
A|-------------1--1--1--1-----------------------------------------|
E|-3--3--3--3--------------1*-------------------------------------|

                    *Hold note till song is over
A great song by a great band. Not too challenging to play, though. Now go buy            
                                              their CD!

            
            
Suggest correction
Creating personal tab
Creating personal tab
You can edit any tab online and save it as your Personal.

You can edit, replace or remove any tab part or add personal notes – all changes will be seen only by you.

Personal tabs can be accessed anytime from any device, even offline.
Learn more »
Give kudos to tab author, rate the tab!
1 2 3 4 5
comments
print report bad tab
1 comment total.
+1 reply
hammerhead317 46 Dec 17, 2006 06:06 AM

dude this tab is awesome. that song is amazing

guest
Wanna post a correction for this tab? Suggest correction