Oops, an error
Loading. Please wait.

Trees tab

version 1
version 1

Whole song

3,625 views 3 this week
1 commentread comment
1 2 3 4 5
x 5
add to favorites
×
Save as Personal and add changes to this tab that will be seen only by you. Learn more ›
×
You can save this tab as Personal to edit and correct it or add notes. All changes will be seen only by you. Learn more »
launch autoscroll
font size
0
reset
how to read this tab
guitar tuner
edit
Autoscroll
slow
fast
+/-
esc
set tempo
stop
Difficulty
i pretty much taught myself this song... the best song of all time... my first tab be gentle!

INTRO: "I DON'T WANNA GO THROUGH THIS LIFE..."
E------------------|
B------------------|
G------------------|
D------------------|X2
A-----------5----1-|
E-1----5-----------|


FIRST VERSE: 
E---------------------------|
B---------------------------|
G-------------------7-----3-|
D-------3-----7---7-----3---|x2
A----3------7---5-----1-----|
E-1-------5-----------------|

SECOND VERSE: THIS IS PALM MUTED... "WE WERE MAKE BELIEVE..."
E---------------------------------------------------------------------|
B---------------------------------------------------------------------|
G-----------------------------------7777777777777777------------------|
D-3333333333333333-7777777777777777-7777777777777777-8888888888888888-|X2
A-3333333333333333-7777777777777777-5555555555555555-8888888888888888-|
E-1111111111111111-5555555555555555------------------6666666666666666-|

CHROUS: PLAYED W/ DISTORTION NO PALM MUTING "AND IT'LL BE YOU AND ME..."
E---------------------------------------------------------------------|
B---------------------------------------------------------------------|
G-----------------------------------7777777777777777------------------|
D-3333333333333333-7777777777777777-7777777777777777-8888888888888888-|
A-3333333333333333-7777777777777777-5555555555555555-8888888888888888-|
E-1111111111111111-5555555555555555------------------6666666666666666-|

BRIDGE: DISTORTION "YEA YEA YEA YEA OH YEAH WE GOT ONE SHOT..."
E---------------------------------------------------------------------|
B---------------------------------------------------------------------|
G------------------3333333333333333------------------5555555555555555-|
D-5555555555555555-3333333333333333-3333333333333333-5555555555555555-|X2
A-5555555555555555-1111111111111111-3333333333333333-3333333333333333-|
E-3333333333333333------------------1111111111111111------------------|

PLAY DURING SOLO... (SORRY DON'T KNOW SOLO YET. WILL POST WHEN I DO)
E---------------------------------------------------------------------|
B---------------------------------------------------------------------|
G------------------3333333333333333------------------5555555555555555-|
D-5555555555555555-3333333333333333-3333333333333333-5555555555555555-|
A-5555555555555555-1111111111111111-3333333333333333-3333333333333333-|
E-3333333333333333------------------1111111111111111------------------|

CHROUS: "AND IT'LL BE YOU AND ME..."
E---------------------------------------------------------------------|
B---------------------------------------------------------------------|
G-----------------------------------7777777777777777------------------|
D-3333333333333333-7777777777777777-7777777777777777-8888888888888888-|X2
A-3333333333333333-7777777777777777-5555555555555555-8888888888888888-|
E-1111111111111111-5555555555555555------------------6666666666666666-|

"I KNOW THERE'S MORE FOR US IN THIS LIFE IF WE HOLD ON CAN WE HOLD ON..."
E---------------------------------------------------------------------|
B---------------------------------------------------------------------|
G------------------3333333333333333------------------5555555555555555-|
D-5555555555555555-3333333333333333-3333333333333333-5555555555555555-|X2
A-5555555555555555-1111111111111111-3333333333333333-3333333333333333-|
E-3333333333333333------------------1111111111111111------------------|

ENDING: STRUMMING MAY NOT BE 100% RIGHT, LISTEN TO SONG TO FIGURE IT OUT.
E--------------------------------|
B--------------------------------|
G--------------------------------|
D-5-5-5---5-5--7--8-8-8---8-8--3-|
A-5-5-5---5-5--7--8-8-8---8-8--3-|FADE OUT FROM THE LAST CHORD...
E-3-3-3---3-3--5--6-6-6---6-6--1-|

ENJOY! IF YOU HAVE ?'S EMAIL ME @: IMAJENIUS247@HOTMAIL.COM



            
            
Suggest correction
Creating personal tab
Creating personal tab
You can edit any tab online and save it as your Personal.

You can edit, replace or remove any tab part or add personal notes – all changes will be seen only by you.

Personal tabs can be accessed anytime from any device, even offline.
Learn more »
comments
print report bad tab
1 comment total.
0 reply
ofreena 178 Nov 23, 2008 12:24 PM

Is it the same on acoustic? The verse and chorus sound so weird.
Otherwise total 5 though.

guest
Wanna post a correction for this tab? Suggest correction