Oops, an error
Loading. Please wait.

Trees tab

version 2
version 2

Whole song

838 views 1 this week
no commentswrite comment
1 2 3 4 5
2 more votes to show rating
add to favorites
×
Save as Personal and add changes to this tab that will be seen only by you. Learn more ›
×
You can save this tab as Personal to edit and correct it or add notes. All changes will be seen only by you. Learn more »
launch autoscroll
font size
0
reset
how to read this tab
guitar tuner
edit
Autoscroll
slow
fast
+/-
esc
set tempo
stop
Difficulty
TREES
As recorded by Lovehammers
(From the 2006 Album MARTY CASEY AND LOVEHAMMERS)


Transcribed by Francis N. (caspiantrixter@yahoo.com)


F
1 3 3 2 1 1 
A
5 7 7 6 5 5 
Dm
x 5 7 7 6 5 
Bb
6 8 8 7 6 6 
Gm
3 5 5 3 3 3 
C5
x 3 5 5 x x 
C#5
x 4 6 6 x x 
G5
3 5 5 x x x 
Bb5
6 8 8 x x x 
F5
1 3 3 x x x 
C
x 3 5 5 5 3 
E5
x 7 9 9 x x 
D5
x 5 7 7 x x 
F5VIII
x 8 10 10 x x 
A5
x 0 2 2 x x 
Bb5I
x 1 3 3 x x 



   Verse
    Q=145
    F/C                                   A/E
   4/4
    Gtr I
    E E E E E E E E    E  E E E E E E E   E E E E E E E E    E  E E E E E E E
||------------------|-------------------|-----------------|--------------------|
||o-1-1-1-1-1-1-1-1-|--1--1-1-1-1-1-1-1-|-5-5-5-5-5-5-5-5-|--5--5-5-5-5-5-5-5--|
||--2-2-2-2-2-2-2-2-|--2--2-2-2-2-2-2-2-|-6-6-6-6-6-6-6-6-|--6--6-6-6-6-6-6-6--|
||------------------|-------------------|-----------------|--------------------|
||o-3---------------|-(3)---------------|-7---------------|-(7)----------------|
||------------------|-------------------|-----------------|--------------------|
    W                 +W                  W                 +W


  Dm                                  Bb
  E E E E E E E E   E E E E E E E E   E E E E E E E E    E  E E E E E E E
|-5-5-5-5-5-5-5-5-|-5-5-5-5-5-5-5-5-|-----------------|--------------------||
|-6-6-6-6-6-6-6-6-|-6-6-6-6-6-6-6-6-|-6-6-6-6-6-6-6-6-|--6--6-6-6-6-6-6-6-o||
|-7-7-7-7-7-7-7-7-|-7-7-7-7-7-7-7-7-|-7-7-7-7-7-7-7-7-|--7--7-7-7-7-7-7-7--||
|-----------------|-----------------|-----------------|--------------------||
|-----------------|-----------------|-----------------|-------------------o||
|-----------------|-----------------|-6---------------|-(6)----------------||
                                      W                 +W


   Chorus
    F/C                                   A
    E E E E E E E E    E  E E E E E E E   E E E E E E E E    E  E E E E E E E
||------------------|-------------------|-----------------|--------------------|
||o-1-1-1-1-1-1-1-1-|--1--1-1-1-1-1-1-1-|-5-5-5-5-5-5-5-5-|--5--5-5-5-5-5-5-5--|
||--2-2-2-2-2-2-2-2-|--2--2-2-2-2-2-2-2-|-6-6-6-6-6-6-6-6-|--6--6-6-6-6-6-6-6--|
||------------------|-------------------|-----------------|--------------------|
||o-3---------------|-(3)---------------|-7---------------|-(7)----------------|
||------------------|-------------------|-----------------|--------------------|
|   W                 +W                  W                 +W
|
|   Gtr IV
|   H       H         +H        H         H       H          W
||------------------|-------------------|-----------------|--------------------|
||o-----------------|-----------1-------|-----------------|--------------------|
||------------------|-------------------|-----------------|--------------------|
||----------3-------|-(3)---------------|-----------------|--7-----------------|
||o-----------------|-------------------|---------7-------|--------------------|
||--1---------------|-------------------|-5---------------|--------------------|


  Dm                                    Bb
  E E E E E E E E    E  E E E E E E E   E E E E E E E E    E  E E E E E E E
|-5-5-5-5-5-5-5-5-|--5--5-5-5-5-5-5-5-|-----------------|--------------------||
|-6-6-6-6-6-6-6-6-|--6--6-6-6-6-6-6-6-|-6-6-6-6-6-6-6-6-|--6--6-6-6-6-6-6-6-o||
|-7-7-7-7-7-7-7-7-|--7--7-7-7-7-7-7-7-|-7-7-7-7-7-7-7-7-|--7--7-7-7-7-7-7-7--||
|-----------------|-------------------|-----------------|--------------------||
|-----------------|-------------------|-----------------|-------------------o||
|-----------------|-------------------|-6---------------|--------------------||
|                                       W
|
| H       H         +H        H         H       H         +H        H
|-----------------|-------------------|-----------------|--------------------||
|-----------------|-------------------|-----------------|-------------------o||
|-----------------|-----------7-------|-----------------|--------------------||
|---------7-------|-(7)---------------|-----------------|-----------8--------||
|-5---------------|-------------------|---------8-------|-(8)---------------o||
|-----------------|-------------------|-6---------------|--------------------||


   Verse
    F                                   A
    PM------------------------------------------------------------------|
    E E E E E E E E   E E E E E E E E   E E E E E E E E   E E E E E E E E
||------------------|-----------------|-----------------|------------------|
||o-----------------|-----------------|-----------------|------------------|
||------------------|-----------------|-----------------|------------------|
||------------------|-----------------|-----------------|------------------|
||o-----------------|-----------------|-----------------|------------------|
||--1-1-1-1-1-1-1-1-|-1-1-1-1-1-1-1-1-|-5-5-5-5-5-5-5-5-|-5-5-5-5-5-5-5-5--|


  Dm                                  Bb
  PM------------------------------------------------------------------|
  E E E E E E E E   E E E E E E E E   E E E E E E E E   E E E E E E E E
|-----------------|-----------------|-----------------|------------------||
|-----------------|-----------------|-----------------|-----------------o||
|-----------------|-----------------|-----------------|------------------||
|-----------------|-----------------|-----------------|------------------||
|-5-5-5-5-5-5-5-5-|-5-5-5-5-5-5-5-5-|-----------------|-----------------o||
|-----------------|-----------------|-6-6-6-6-6-6-6-6-|-6-6-6-6-6-6-6-6--||


 Chorus
  F                                   A
  Gtr III
  E E E E E E E E   E E E E E E E E   E E E E E E E E   E E E E E E E E
  | | | | | | | |   | | | | | | | |   | | | | | | | |   | | | | | | | |
  / / / / / / / /   / / / / / / / /   / / / / / / / /   / / / / / / / /

  W                 W                 W                 W
|-----------------|-----------------|-----------------|-----------------|
|-----------------|-----------------|-----------------|-----------------|
|-----------------|-----------------|-----------------|-----------------|
|-----------------|-----------------|-----------------|-----------------|
|-----------------|-----------------|-----------------|-----------------|
|-----------------|-----------------|-----------------|-----------------|


  Dm                                  Bb
  E E E E E E E E   E E E E E E E E   E E E E E E E E   E E E E E E E E
  | | | | | | | |   | | | | | | | |   | | | | | | | |   | | | | | | | |
  / / / / / / / /   / / / / / / / /   / / / / / / / /   / / / / / / / /

  W                 W                 W                 W
|-----------------|-----------------|-----------------|-----------------|
|-----------------|-----------------|-----------------|-----------------|
|-----------------|-----------------|-----------------|-----------------|
|-----------------|-----------------|-----------------|-----------------|
|-----------------|-----------------|-----------------|-----------------|
|-----------------|-----------------|-----------------|-----------------|


  F                                   A
  E E E E E E E E   E E E E E E E E   E E E E E E E E   E E E E E E E E
  | | | | | | | |   | | | | | | | |   | | | | | | | |   | | | | | | | |
  / / / / / / / /   / / / / / / / /   / / / / / / / /   / / / / / / / /

  W                 W                 W                 W
|-----------------|-----------------|-----------------|-----------------|
|-----------------|-----------------|-----------------|-----------------|
|-----------------|-----------------|-----------------|-----------------|
|-----------------|-----------------|-----------------|-----------------|
|-----------------|-----------------|-----------------|-----------------|
|-----------------|-----------------|-----------------|-----------------|


  Dm                                  Bb
  E E E E E E E E   E E E E E E E E   E E E E E E E E   E E E E E E E E
  | | | | | | | |   | | | | | | | |   | | | | | | | |   | | | | | | | |
  / / / / / / / /   / / / / / / / /   / / / / / / / /   / x x / / x x /

  W                 W                 W                 W
|-----------------|-----------------|-----------------|-----------------||
|-----------------|-----------------|-----------------|-----------------||
|-----------------|-----------------|-----------------|-----------------||
|-----------------|-----------------|-----------------|-----------------||
|-----------------|-----------------|-----------------|-----------------||
|-----------------|-----------------|-----------------|-----------------||


 Bridge
  Gm                                  Bb
  Gtr III
  E E E E E E E E   E E E E E E E E   E E E E E E E E   E E E E E E E E
|-3-3-3-3-3-3-3-3-|-3-3-3-3-3-3-3-3-|-6-6-6-6-6-6-6-6-|-6-6-6-6-6-6-6-6-|
|-3-3-3-3-3-3-3-3-|-3-3-3-3-3-3-3-3-|-6-6-6-6-6-6-6-6-|-6-6-6-6-6-6-6-6-|
|-3-3-3-3-3-3-3-3-|-3-3-3-3-3-3-3-3-|-7-7-7-7-7-7-7-7-|-7-7-7-7-7-7-7-7-|
|-5-5-5-5-5-5-5-5-|-5-5-5-5-5-5-5-5-|-8-8-8-8-8-8-8-8-|-8-8-8-8-8-8-8-8-|
|-5-5-5-5-5-5-5-5-|-5-5-5-5-5-5-5-5-|-8-8-8-8-8-8-8-8-|-8-8-8-8-8-8-8-8-|
|-3-3-3-3-3-3-3-3-|-3-3-3-3-3-3-3-3-|-6-6-6-6-6-6-6-6-|-6-6-6-6-6-6-6-6-|


  F                                   C
  E E E E E E E E   E E E E E E E E   E E E E E E E E   E E E E E E E E
|-1-1-1-1-1-1-1-1-|-1-1-1-1-1-1-1-1-|-3-3-3-3-3-3-3-3-|-3-3-3-3-3-3-3-3-|
|-1-1-1-1-1-1-1-1-|-1-1-1-1-1-1-1-1-|-5-5-5-5-5-5-5-5-|-5-5-5-5-5-5-5-5-|
|-2-2-2-2-2-2-2-2-|-2-2-2-2-2-2-2-2-|-5-5-5-5-5-5-5-5-|-5-5-5-5-5-5-5-5-|
|-3-3-3-3-3-3-3-3-|-3-3-3-3-3-3-3-3-|-5-5-5-5-5-5-5-5-|-5-5-5-5-5-5-5-5-|
|-3-3-3-3-3-3-3-3-|-3-3-3-3-3-3-3-3-|-3-3-3-3-3-3-3-3-|-3-3-3-3-3-3-3-3-|
|-1-1-1-1-1-1-1-1-|-1-1-1-1-1-1-1-1-|-----------------|-----------------|
|
| Gtr III
| W                 W                 W                 E E E E E E E E
|-----------------|-----------------|-----------------|-----------------|
|-----------------|-----------------|-----------------|-----------------|
|-----------------|-----------------|-----------------|-----------------|
|-----------------|-----------------|-----------------|-5-5-5-7-7-7-5-5-|
|-----------------|-----------------|-----------------|-----------------|
|-----------------|-----------------|-----------------|-3-3-3-5-5-5-3-3-|


  Gm
   E   E   E E  E  E  E E    E  E E  E   E E  E E
|--3---3---3-3--3--3--3-3-|--3--3-3--3---3-3--3-3-|
|--3---3---3-3--3--3--3-3-|--3--3-3--3---3-3--3-3-|
|--3---3---3-3--3--3--3-3-|--3--3-3--3---3-3--3-3-|
|--5---5---5-5--5--5--5-5-|--5--5-5--5---5-5--5-5-|
|--5---5---5-5--5--5--5-5-|--5--5-5--5---5-5--5-5-|
|--3---3---3-3--3--3--3-3-|--3--3-3--3---3-3--3-3-|
|
|  E  +E   Q    E  E  Q      E  E E +E   Q    E E
|-------------------------|-----------------------|
|-------------------------|-----------------------|
|-10-(10)s12---12-12s10---|-10-10s9-(9)-10---10s9-|
|-------------------------|-----------------------|
|--8--(8)s10---10-10s=8---|--8--8s7-(7)--8----8s7-|
|-------------------------|-----------------------|


  Bb
  E E E E E E E E   E E E E E E E E
|-6-6-6-6-6-6-6-6-|-6-6-6-6-6-6-6-6-|
|-6-6-6-6-6-6-6-6-|-6-6-6-6-6-6-6-6-|
|-7-7-7-7-7-7-7-7-|-7-7-7-7-7-7-7-7-|
|-8-8-8-8-8-8-8-8-|-8-8-8-8-8-8-8-8-|
|-8-8-8-8-8-8-8-8-|-8-8-8-8-8-8-8-8-|
|-6-6-6-6-6-6-6-6-|-6-6-6-6-6-6-6-6-|
|
| E E E E E E E E   E E E E E E E E
|-6-6-6-6-6-6-6-6-|-6-6-6-6-6-6-6-6-|
|-6-6-6-6-6-6-6-6-|-6-6-6-6-6-6-6-6-|
|-7-7-7-7-7-7-7-7-|-7-7-7-7-7-7-7-7-|
|-8-8-8-8-8-8-8-8-|-8-8-8-8-8-8-8-8-|
|-8-8-8-8-8-8-8-8-|-8-8-8-8-8-8-8-8-|
|-6-6-6-6-6-6-6-6-|-6-6-6-6-6-6-6-6-|


  F
   E  E  E  E  E  E  E   E        E  E  E  E  E  E  E  E
|--1--1--1--1--1--1--1---1-----|--1--1--1--1--1--1--1--1-|
|--1--1--1--1--1--1--1---1-----|--1--1--1--1--1--1--1--1-|
|--2--2--2--2--2--2--2---2-----|--2--2--2--2--2--2--2--2-|
|--3--3--3--3--3--3--3---3-----|--3--3--3--3--3--3--3--3-|
|--3--3--3--3--3--3--3---3-----|--3--3--3--3--3--3--3--3-|
|--1--1--1--1--1--1--1---1-----|--1--1--1--1--1--1--1--1-|
|
| Gtr III
|  E  E  E  E  E  E  E  +S.  T    E  E  E  E  E  E  E  E
|------------------------------|-------------------------|
|------------------------------|-------------------------|
|-10s12-12-12-12s14-14-(14)-14s|=15-15-15-15-15s17-17-17s|
|------------------------------|-------------------------|
|--8s10-10-10-10s12-12-(12)-12s|=13-13-13-13-13s15-15-15s|
|------------------------------|-------------------------|


  C                         C5             C#5
   E  E  E  E  E  E  E  E    E  E  E  E  E  E  E  E
|--3--3--3--3--3--3--3--3-|-------------------------||
|--5--5--5--5--5--5--5--5-|-------------------------||
|--5--5--5--5--5--5--5--5-|--5--5--5--5--5--6--6--6-||
|--5--5--5--5--5--5--5--5-|--5--5--5--5--5--6--6--6-||
|--3--3--3--3--3--3--3--3-|--3--3--3--3--3--4--4--4-||
|-------------------------|-------------------------||
|
|  E  E  E  E  E  E  E  E    E  E  E  E  E  E  E  E
|-------------------------|-------------------------||
|-------------------------|-------------------------||
|-19-19-19-19-19-19-19-19-|-17-17-17-17-17-18-18-18-||
|-------------------------|-------------------------||
|-17-17-17-17-17-17-17-17-|-15-15-15-15-15-16-16-16-||
|-------------------------|-------------------------||


 Guitar Solo
  G5
  Gtr VI
   E    E  E    E  E    E  E    E    E    E  E    E  E  E  E  E
   |    |  |    |  |    |  |    |    |    |  |    |  |  |  |  |
   /    /  /    /  /    /  /    /    /    /  /    /  /  /  /  /

  Gtr III
   Q       Q       Q       Q         Q       Q       E  E  E  E
|---------------------------------|-----------------------------|
|-10------10------10------10------|-10------10------------------|
|-12b14---12b14---12b14---12b14---|-12b14---12b14---12-10----10-|
|---------------------------------|-----------------------12----|
|---------------------------------|-----------------------------|
|---------------------------------|-----------------------------|


  Bb5
   E    E  E    E  E    E  E  E        E  E  E  E  E  E  E  E
   |    |  |    |  |    |  |  |        |  |  |  |  |  |  |  |
   /    /  /    /  /    /  /  /        /  /  /  /  /  /  /  /

   Q       Q       Q       E  E       +Q     E  E  E  E  E  E
|----------------------------------|--------------------------|
|-------------------------13-10----|-(10)---------------------|
|-12b14---12b14---12b14------12b14-|-(12)---12-10-12-10----10-|
|----------------------------------|--------------------12----|
|----------------------------------|--------------------------|
|----------------------------------|--------------------------|


  F5
   E    E     E     E    E  E  E     E       E         E     E  E  E  E E E
   |    |     |     |    |  |  |     |       |         |     |  |  |  | | |
   /    /     /     /    /  /  /     /       /         /     /  /  /  / / /

                                             |-----3------|
   E.      S  S  S  Q       E  S  S  S  S    E     +E     E  E  E  Q.     E
|------------10------------10-------------|---------------------------------|
|---------10----10-13b15------13p10-------|---------------------------------|
|-12b14-----------------------------10h12-|-12b14r(12)p==10-----------------|
|-----------------------------------------|-----------------12-10-12--------|
|-----------------------------------------|---------------------------------|
|-----------------------------------------|---------------------------------|


  F5VIII    E5    D5      C5    Bb5I           A5
    E  E  E E E E E E   E E E E E  E           E       E
    |  |  | | | | | |   | | | | |  |           |       |
    /  /  / / / / / /   / / / / /  /           /       /

                                Gtr V            Gtr III
                                      |----3-----|
    E  E  E E E E E E   E E E E E.   +S    +S    S +E.
|---------------------|------------------------------------||
|---------------------|------------------------------------||
|-/10-10-10-9-9-9-7-7-|-7-5-5-5-5----(5)b7r(5)---2-(2)-----||
|---------------------|------------------------------------||
|---------------------|------------------------------------||
|---------------------|------------------------------------||


 Chorus
  F                                   A
  E E E E E E E E   E E E E E E E E   E E E E E E E E   E E E E E E E E
  | | | | | | | |   | | | | | | | |   | | | | | | | |   | | | | | | | |
  / / / / / / / /   / / / / / / / /   / / / / / / / /   / / / / / / / /

  W                 W                 W                 W
|-----------------|-----------------|-----------------|-----------------|
|-----------------|-----------------|-----------------|-----------------|
|-----------------|-----------------|-----------------|-----------------|
|-----------------|-----------------|-----------------|-----------------|
|-----------------|-----------------|-----------------|-----------------|
|-----------------|-----------------|-----------------|-----------------|


  Dm                                  Bb
  E E E E E E E E   E E E E E E E E   E E E E E E E E   E E E E E E E E
  | | | | | | | |   | | | | | | | |   | | | | | | | |   | | | | | | | |
  / / / / / / / /   / / / / / / / /   / / / / / / / /   / / / / / / / /

  W                 W                 W                 W
|-----------------|-----------------|-----------------|-----------------|
|-----------------|-----------------|-----------------|-----------------|
|-----------------|-----------------|-----------------|-----------------|
|-----------------|-----------------|-----------------|-----------------|
|-----------------|-----------------|-----------------|-----------------|
|-----------------|-----------------|-----------------|-----------------|


  F                                   A
  E E E E E E E E   E E E E E E E E   E E E E E E E E   E E E E E E E E
  | | | | | | | |   | | | | | | | |   | | | | | | | |   | | | | | | | |
  / / / / / / / /   / / / / / / / /   / / / / / / / /   / / / / / / / /

  W                 W                 W                 W
|-----------------|-----------------|-----------------|-----------------|
|-----------------|-----------------|-----------------|-----------------|
|-----------------|-----------------|-----------------|-----------------|
|-----------------|-----------------|-----------------|-----------------|
|-----------------|-----------------|-----------------|-----------------|
|-----------------|-----------------|-----------------|-----------------|


  Dm                                  Bb
  E E E E E E E E   E E E E E E E E   E E E E E E E E   E E E E E E E E
  | | | | | | | |   | | | | | | | |   | | | | | | | |   | | | | | | | |
  / / / / / / / /   / / / / / / / /   / / / / / / / /   / x x / / x x x

  W                 W                 W                 W
|-----------------|-----------------|-----------------|-----------------||
|-----------------|-----------------|-----------------|-----------------||
|-----------------|-----------------|-----------------|-----------------||
|-----------------|-----------------|-----------------|-----------------||
|-----------------|-----------------|-----------------|-----------------||
|-----------------|-----------------|-----------------|-----------------||


 Bridge
  Gm                                  Bb
  E E E E E E E E   E E E E E E E E   E E E E E E E E   E E E E E E E E
  | | | | | | | |   | | | | | | | |   | | | | | | | |   | | | | | | | |
  / / / / / / / /   / / / / / / / /   / / / / / / / /   / / / / / / / /

  W                 W                 W                 W
|-----------------|-----------------|-----------------|-----------------|
|-----------------|-----------------|-----------------|-----------------|
|-----------------|-----------------|-----------------|-----------------|
|-----------------|-----------------|-----------------|-----------------|
|-----------------|-----------------|-----------------|-----------------|
|-----------------|-----------------|-----------------|-----------------|


  F                                   C
  E E E E E E E E   E E E E E E E E   E E E E E E E E   E E E E E E E E
  | | | | | | | |   | | | | | | | |   | | | | | | | |   | | | | | | | |
  / / / / / / / /   / / / / / / / /   / / / / / / / /   / / / / / / / /

  W                 W                 W                 W
|-----------------|-----------------|-----------------|-----------------|
|-----------------|-----------------|-----------------|-----------------|
|-----------------|-----------------|-----------------|-----------------|
|-----------------|-----------------|-----------------|-----------------|
|-----------------|-----------------|-----------------|-----------------|
|-----------------|-----------------|-----------------|-----------------|


  Gm                                  Bb
  E E E E E E E E   E E E E E E E E   E E E E E E E E   E E E E E E E E
  | | | | | | | |   | | | | | | | |   | | | | | | | |   | | | | | | | |
  / / / / / / / /   / / / / / / / /   / / / / / / / /   / / / / / / / /

  W                 W                 W                 W
|-----------------|-----------------|-----------------|-----------------|
|-----------------|-----------------|-----------------|-----------------|
|-----------------|-----------------|-----------------|-----------------|
|-----------------|-----------------|-----------------|-----------------|
|-----------------|-----------------|-----------------|-----------------|
|-----------------|-----------------|-----------------|-----------------|


  F                                   C
  E E E E E E E E   E E E E E E E E   E E E E E E E E   E E E E E E E E
  | | | | | | | |   | | | | | | | |   | | | | | | | |   | | | | | | | |
  / / / / / / / /   / / / / / / / /   / / / / / / / /   / / / / / / / /

  W                 W                 W                 W
|-----------------|-----------------|-----------------|-----------------|
|-----------------|-----------------|-----------------|-----------------|
|-----------------|-----------------|-----------------|-----------------|
|-----------------|-----------------|-----------------|-----------------|
|-----------------|-----------------|-----------------|-----------------|
|-----------------|-----------------|-----------------|-----------------|


  Gm                        Bb
  W          +H.      E E   W          +H.      +Q
  |           |       | |   |           |        |
  /           /       / /   /           /        /

  W           W             W           W
|----------|--------------|----------|--------------|
|----------|--------------|----------|--------------|
|----------|--------------|----------|--------------|
|----------|--------------|----------|--------------|
|----------|--------------|----------|--------------|
|----------|--------------|----------|--------------|


  F
  ~~~~~~~~~~~~~~~~~~~~~~~~~~~~~~~~~~~~~~~~~
  W          +W           +W           +W
|-1--------|-(1)--------|-(1)--------|-(1)----*|
|-1--------|-(1)--------|-(1)--------|-(1)----*|
|-2--------|-(2)--------|-(2)--------|-(2)----*|
|-3--------|-(3)--------|-(3)--------|-(3)----*|
|-3--------|-(3)--------|-(3)--------|-(3)----*|
|-1--------|-(1)--------|-(1)--------|-(1)----*|

see this tab in powertab format at www.powertabs.net

            
            
Suggest correction
Creating personal tab
Creating personal tab
You can edit any tab online and save it as your Personal.

You can edit, replace or remove any tab part or add personal notes – all changes will be seen only by you.

Personal tabs can be accessed anytime from any device, even offline.
Learn more »
Give kudos to tab author, rate the tab!
1 2 3 4 5
comments
print report bad tab
guest
Wanna post a correction for this tab? Suggest correction