Oops, an error
Loading. Please wait.

Amity bass

version 1
version 1

Whole song

Interactive

1,495 views 3 this week
1 commentread comment
1 2 3 4 5
3 more votes to show rating
add to favorites
×
Save as Personal and add changes to this tab that will be seen only by you. Learn more ›
×
You can save this tab as Personal to edit and correct it or add notes. All changes will be seen only by you. Learn more »
launch autoscroll
font size
0
reset
guitar tuner
edit
Autoscroll
slow
fast
+/-
esc
set tempo
stop
Here are the Bass tabs for amity


    Intro                                                     
     H            Q    E  E  E  E  Q       E  E  E  E  E  E  E  E   
F||------------|------------------------|--------------------------|
C||------------|------------------------|--------------------------|
G||------------|------------------------|--------------------------|
D||--8\--------|--1----1--1--1-----1----|--1--1--1-----1--1--1-----|


  Q    E  E  E  E  Q       E  E  E  E  E  E  E  E     Q    E  E  E  E  Q     
------------------------|--------------------------|------------------------|
------------------------|--------------------------|------------------------|
------------------------|--------------------------|------------------------|
--5----5--5--5-----3----|--3--3--3-----3--3--3-----|--1----1--1--1-----1----|


  E  E  E  E  E  E  E  E     Q    E  E  E  E  Q       E  E  E  E  E  E  E  E   
--------------------------|------------------------|--------------------------|
--------------------------|------------------------|--------------------------|
--------------------------|------------------------|--------------------------|
--1--1--1-----1--1--1-----|--5----5--5--5-----3----|--3--3--3-----3--3--3-----|


  E  E  E  E  E  E  E  E     E  E  E  E  E  E  E  E   
--------------------------|--------------------------|
--------------------------|--------------------------|
--------------------------|--------------------------|
--1--1--1--1--1-----1--1--|--1--1--1-----1--1--1-----|


  E  E  E  E  E  E  E  E     E  E  E  E  E  E  E  E   
--------------------------|--------------------------|
--------------------------|--------------------------|
--------------------------|--------------------------|
--5--5--5--5--5-----3--3--|--3--3--3-----3--3--------|


  E  E  E  E  E  E  E  E     E  E  E  E  E  E  E  E   
--------------------------|--------------------------|
--------------------------|--------------------------|
--------------------------|--------------------------|
--1--1--1--1--1-----1--1--|--1--1--1-----1--1--1-----|

                                                        Verse
  E  E  E  E  E  E  E  E     E  E  E  E  E  E  E  E     E  E  E  E  E  E   
--------------------------|--------------------------|--------------------|
--------------------------|--------------------------|--------------------|
--------------------------|--------------------------|--------------------|
--5--5--5--5--5-----3--3--|--3--3--3-----3--3--------|--1--1--1--1--1--1--|


  E  E  E  E  E  E     E  E  E  E  E  E     E  E  E  E  E  E   
--------------------|--------------------|--------------------|
--------------------|--------------------|--------------------|
--------------------|--------------------|--------------------|
--3--3--3--3--3--3--|--5--5--5--5--5--5--|--5--5--5--5--5-----|


  E  E  E  E  E  E     E  E  E  E  E  E     E  E  E  E  E  E   
--------------------|--------------------|--------------------|
--------------------|--------------------|--------------------|
--------------------|--------------------|--------------------|
--1--1--1--1--1--1--|--3--3--3--3--3--3--|--5--5--5--5--5--5--|


  E  E  E  E  E  E     E  E  E  E  E  E     E  E  E  E  E  E   
--------------------|--------------------|--------------------|
--------------------|--------------------|--------------------|
--------------------|--------------------|--------------------|
--5--5--5--5--5-----|--1--1--1--1--1--1--|--3--3--3--3--3--3--|


  E  E  E  E  E  E     E  E  E  E  E  E     E  E  E  E  E  E   
--------------------|--------------------|--------------------|
--------------------|--------------------|--------------------|
--------------------|--------------------|--------------------|
--5--5--5--5--5--5--|--5--5--5--5--5-----|--1--1--1--1--1--1--|


  E  E  E  E  E  E     E  E  E  E  E  E     E  E  E  E  E  E   
--------------------|--------------------|--------------------|
--------------------|--------------------|--------------------|
--------------------|--------------------|--------------------|
--3--3--3--3--3--3--|--5--5--5--5--5--5--|--5--5--5--5--5-----|


  E  Q    Q    E  E  E     E  E  E  E  E  Q    E     E  E  E  E  E  E  E  E   
------------------------|-------------------------|--------------------------|
------------------------|-------------------------|--------------------------|
------------------------|-------------------------|--------------------------|
--1--1----1----1--1-----|--------------3--3----3--|--L--3--3-----------------|


  E  Q    Q    E  E  E     E  E  E  E  E  Q    E     E  E  H.             
------------------------|-------------------------|----------------------|
------------------------|-------------------------|----------------------|
------------------------|-------------------------|----------------------|
--5--5----5----5--5-----|--------------8--8----8--|--L--8--8\------------|

Chorus 
  Q    E  E  E  E  Q       E  E  E  E  E  E  E  E     Q    E  E  E  E  Q     
------------------------|--------------------------|------------------------|
------------------------|--------------------------|------------------------|
------------------------|--------------------------|------------------------|
--1----1--1--1-----1----|--1--1--1-----1--1--1-----|--5----5--5--5-----3----|


  E  E  E  E  E  E  E  E     Q    E  E  E  E  Q       E  E  E  E  E  E  E  E   
--------------------------|------------------------|--------------------------|
--------------------------|------------------------|--------------------------|
--------------------------|------------------------|--------------------------|
--3--3--3-----3--3--3-----|--1----1--1--1-----1----|--1--1--1-----1--1--1-----|


  Q    E  E  E  E  Q       E  E  E  E  E  E  E  E     E  E  E  E  E  E  E  E   
------------------------|--------------------------|--------------------------|
------------------------|--------------------------|--------------------------|
------------------------|--------------------------|--------------------------|
--5----5--5--5-----3----|--3--3--3-----3--3--3-----|--1--1--1--1--1-----1--1--|


  E  E  E  E  E  E  E  E     E  E  E  E  E  E  E  E   
--------------------------|--------------------------|
--------------------------|--------------------------|
--------------------------|--------------------------|
--1--1--1-----1--1--1-----|--5--5--5--5--5-----3--3--|


  E  E  E  E  E  E  E  E     E  E  E  E  E  E  E  E   
--------------------------|--------------------------|
--------------------------|--------------------------|
--------------------------|--------------------------|
--3--3--3-----3--3--------|--1--1--1--1--1-----1--1--|


  E  E  E  E  E  E  E  E     E  E  E  E  E  E  E  E   
--------------------------|--------------------------|
--------------------------|--------------------------|
--------------------------|--------------------------|
--1--1--1-----1--1--1-----|--5--5--5--5--5-----3--3--|


  E  E  E  E  E  E  E  E     E  E  E  E  E  E  E  E         
--------------------------|--------------------------|-----|
--------------------------|--------------------------|-----|
--------------------------|--------------------------|-----|
--3--3--3-----3--3--------|--5--5-----5--5-----5--5--|-----|


  E  E  E  E  E  E  E  E           E  E  E  E  E  E  E  E         
--------------------------|-----|--------------------------|-----|
--------------------------|-----|--------------------------|-----|
--3--3-----3--3-----3--3--|-----|--------------------------|-----|
--------------------------|-----|--3--3-----3--3-----3--3--|-----|

Verse 2
  E  E  E  E  E  E  E  E     W                   E  E  E  E  E  E  E  E         
--------------------------|-------------------|--------------------------|-----|
--------------------------|-------------------|--------------------------|-----|
--------------------------|-------------------|--------------------------|-----|
--1--1-----1--1-----1--1--|--L----------------|--5--5-----5--5-----5--5--|-----|


  E  E  E  E  E  E  E  E           E  E  E  E  E  E  E  E         
--------------------------|-----|--------------------------|-----|
--------------------------|-----|--------------------------|-----|
--3--3-----3--3-----3--3--|-----|--------------------------|-----|
--------------------------|-----|--3--3-----3--3-----3--3--|-----|

                                                 Chorus
  E  E  E  E  E  E  E  E     W                   Q    E  E  E  E  Q     
--------------------------|-------------------|------------------------|
--------------------------|-------------------|------------------------|
--------------------------|-------------------|------------------------|
--1--1-----1--1-----1--1--|--L----------------|--1----1--1--1-----1----|


  E  E  E  E  E  E  E  E     Q    E  E  E  E  Q       E  E  E  E  E  E  E  E   
--------------------------|------------------------|--------------------------|
--------------------------|------------------------|--------------------------|
--------------------------|------------------------|--------------------------|
--1--1--1-----1--1--1-----|--5----5--5--5-----3----|--3--3--3-----3--3--3-----|


  Q    E  E  E  E  Q       E  E  E  E  E  E  E  E     Q    E  E  E  E  Q     
------------------------|--------------------------|------------------------|
------------------------|--------------------------|------------------------|
------------------------|--------------------------|------------------------|
--1----1--1--1-----1----|--1--1--1-----1--1--1-----|--5----5--5--5-----3----|


  E  E  E  E  E  E  E  E     E  E  E  E  E  E  E  E   
--------------------------|--------------------------|
--------------------------|--------------------------|
--------------------------|--------------------------|
--3--3--3-----3--3--3-----|--1--1--1--1--1-----1--1--|


  E  E  E  E  E  E  E  E     E  E  E  E  E  E  E  E   
--------------------------|--------------------------|
--------------------------|--------------------------|
--------------------------|--------------------------|
--1--1--1-----1--1--1-----|--5--5--5--5--5-----3--3--|


  E  E  E  E  E  E  E  E     E  E  E  E  E  E  E  E   
--------------------------|--------------------------|
--------------------------|--------------------------|
--------------------------|--------------------------|
--3--3--3-----3--3--------|--1--1--1--1--1-----1--1--|


  E  E  E  E  E  E  E  E     E  E  E  E  E  E  E  E   
--------------------------|--------------------------|
--------------------------|--------------------------|
--------------------------|--------------------------|
--1--1--1-----1--1--1-----|--5--5--5--5--5-----3--3--|

                            Breakdown
  E  E  E  E  E  E  E  E     W                   W                 
--------------------------|-------------------|-------------------|
--------------------------|-------------------|-------------------|
--------------------------|-------------------|-------------------|
--3--3--3-----3--3--------|--1----------------|--L----------------|


  W                   W                   W                   W                 
-------------------|-------------------|-------------------|-------------------|
-------------------|-------------------|-------------------|-------------------|
-------------------|-------------------|-------------------|-------------------|
--5----------------|--3----------------|--1----------------|--L----------------|


  W                   E  S E  S E  T E  S E  S S.    W                 
-------------------|------------------------------|-------------------|
-------------------|------------------------------|-------------------|
-------------------|------------------------------|-------------------|
--5----------------|--1----1----1----3----3----3--|--1----------------|


  W                   W                   W                   W                 
-------------------|-------------------|-------------------|-------------------|
-------------------|-------------------|-------------------|-------------------|
-------------------|-------------------|-------------------|-------------------|
--L----------------|--5----------------|--3----------------|--1----------------|


  W                   S S S S S S S S S S S S S S S S  
-------------------|----------------------------------|
-------------------|----------------------------------|
-------------------|----------------------------------|
--L----------------|--5-5-5-5-5-5-5-----------5-5-5-5-|

                                   Guitar solo + Outro
  S S S S S S S S S S S S S S S S    E  E  E  E  E  E  E  E   
----------------------------------|--------------------------|
----------------------------------|--------------------------|
----------------------------------|--------------------------|
--5-5-5-5-------------------------|--1--1--1--1--1-----1--1--|


  E  E  E  E  E  E  E  E     E  E  E  E  E  E  E  E   
--------------------------|--------------------------|
--------------------------|--------------------------|
--------------------------|--------------------------|
--1--1--1-----1--1--1-----|--5--5--5--5--5-----3--3--|


  E  E  E  E  E  E  E  E     E  E  E  E  E  E  E  E   
--------------------------|--------------------------|
--------------------------|--------------------------|
--------------------------|--------------------------|
--3--3--3-----3--3--------|--1--1--1--1--1-----1--1--|


  E  E  E  E  E  E  E  E     E  E  E  E  E  E  E  E   
--------------------------|--------------------------|
--------------------------|--------------------------|
--------------------------|--------------------------|
--1--1--1-----1--1--1-----|--5--5--5--5--5-----3--3--|


  E  E  E  E  E  E  E  E     E  E  E  E  E  E  E  E   
--------------------------|--------------------------|
--------------------------|--------------------------|
--------------------------|--------------------------|
--3--3--3-----3--3--------|--1--1--1--1--1-----1--1--|


  E  E  E  E  E  E  E  E     E  E  E  E  E  E  E  E   
--------------------------|--------------------------|
--------------------------|--------------------------|
--------------------------|--------------------------|
--1--1--1-----1--1--1-----|--5--5--5--5--5-----3--3--|


  E  E  E  E  E  E  E  E     E  E  E  E  E  E  E  E   
--------------------------|--------------------------|
--------------------------|--------------------------|
--------------------------|--------------------------|
--3--3--3-----3--3--------|--1--1--1--1--1-----1--1--|


  E  E  E  E  E  E  E  E     E  E  E  E  E  E  E  E   
--------------------------|--------------------------|
--------------------------|--------------------------|
--------------------------|--------------------------|
--1--1--1-----1--1--1-----|--5--5--5--5--5-----3--3--|


  E  E  E  E  E  E  E  E     Q    E  E  E  E  Q       E  E  E  E  E  E  E  E   
--------------------------|------------------------|--------------------------|
--------------------------|------------------------|--------------------------|
--------------------------|------------------------|--------------------------|
--3--3--3-----3--3--------|--1----1--1--1-----1----|--1--1--1-----1--1--1-----|


  Q    E  E  E  E  Q       E  E  E  E  E  E  E  E     Q    E  E  E  E  Q     
------------------------|--------------------------|------------------------|
------------------------|--------------------------|------------------------|
------------------------|--------------------------|------------------------|
--5----5--5--5-----3----|--3--3--3-----3--3--3-----|--1----1--1--1-----1----|


  E  E  E  E  E  E  E  E     Q    E  E  E  E  Q       E  E  E  E  E  E  E  E   
--------------------------|------------------------|--------------------------|
--------------------------|------------------------|--------------------------|
--------------------------|------------------------|--------------------------|
--1--1--1-----1--1--1-----|--5----5--5--5-----3----|--3--3--3-----3--3--3-----|


  E  E  E  E  E  E  E  E     E  E  E  E  E  E  E  E   
--------------------------|--------------------------|
--------------------------|--------------------------|
--------------------------|--------------------------|
--1--1--1--1--1-----1--1--|--1--1--1-----1--1--1-----|


  E  E  E  E  E  E  E  E     E  E  E  E  E  E  E  E   
--------------------------|--------------------------|
--------------------------|--------------------------|
--------------------------|--------------------------|
--5--5--5--5--5-----3--3--|--3--3--3-----3--3--------|


  E  E  E  E  E  E  E  E     E  E  E  E  E  E  E  E   
--------------------------|--------------------------|
--------------------------|--------------------------|
--------------------------|--------------------------|
--1--1--1--1--1-----1--1--|--1--1--1-----1--1--1-----|


  E  E  E  E  E  E  E  E     E  E  E  E  E  E  E  E     W                 
--------------------------|--------------------------|-------------------|
--------------------------|--------------------------|-------------------|
--------------------------|--------------------------|-------------------|
--5--5--5--5--5-----3--3--|--3--3--3-----3--3--------|--1----------------|


  W                   W                  
-------------------|-------------------||
-------------------|-------------------||
-------------------|-------------------||
--L----------------|--L----------------||




Duration Legend
---------------
W - whole
H - half
Q - quarter
E - 8th
S - 16th
T - 32nd
X - 64th
. - note dotted
|-n-|  - n-tuplets


Tablature Legend
----------------
L - tied note
x - dead note
g - grace note
(n) - ghost note
> - accentuded note
NH - natural harmonic
AH - artificial harmonic
TH - tapped harmonic
SH - semi harmonic
PH - pitch harmonic
h - hammer on
p - pull off
b - bend
br - bendRelease
pb - preBend
pbr - preBendRelease
brb - bendReleaseBend
\n/ - tremolo bar dip
\n - tremolo bar dive
-/n - tremolo bar Release up
/n\ - tremolo bar inverted dip
/n - tremolo bar return
-\n - tremolo bar Release down
S - shift slide
s - legato slide
/ -  slide into from below or out of upwards
\ -  slide into from above or out of downwards
~ - vibrato
W - wide vibrato
tr - trill
TP - tremolo picking
T - tapping
S - slap
P - pop
< - fade in
^ - brush up
v - brush down

            
            
Suggest correction
Creating personal tab
Creating personal tab
You can edit any tab online and save it as your Personal.

You can edit, replace or remove any tab part or add personal notes – all changes will be seen only by you.

Personal tabs can be accessed anytime from any device, even offline.
Learn more »
Give kudos to tab author, rate the tab!
1 2 3 4 5
comments
print report bad tab
1 comment total.
0 reply
frankshred3 10 Aug 15, 2008 12:12 PM

nice!

guest
You may want to rate the tab now too:
select rating
Wanna post a correction for this tab? Suggest correction