Oops, an error
Loading. Please wait.

Hot Girls In Love bass

version 1
version 1

Whole song

Interactive

1,545 views 3 this week
no commentswrite comment
1 2 3 4 5
3 more votes to show rating
add to favorites
×
Save as Personal and add changes to this tab that will be seen only by you. Learn more ›
×
You can save this tab as Personal to edit and correct it or add notes. All changes will be seen only by you. Learn more »
launch autoscroll
font size
0
reset
guitar tuner
edit
Autoscroll
slow
fast
+/-
esc
set tempo
stop
Author
ARTIST: Loverboy
SONG: Hot Girls In Love
TRANSCRIBED BY: Rich Kennedy (outpatient@ptd.net)


TUNING: Standard 440 (EADG)


INTRO


G|-----------------------------------------------------------------------|
D|-6-4-------------------------------------------------------------------|
A|-----7-4-4-4-4-4-4-4-4-4-4-4-4-4-4-4-----------------------------------|
E|-------------------------------------5-5-5-5-5-5-5-5-5-5-5-5-----------|

G|-----------------------------------------------------------------------|
D|-----------------------------------------------------------------------|
A|-------4-4-4-4-4-4-4-4-4-4-4-4-4-4-4-----------------------------------|
E|-4-2-0-------------------------------5-5-5-5-5-5-5-5-5-5-5-5-----------|

G|-----------------------------------------------------------------------|
D|-----------------------------------------------------------------------|
A|-------4-4-4-4-4-4-4-4-4-4-4-4-4-4-4-----------------------------------|
E|-4-2-0-------------------------------5-5-5-5-5-5-5-5-5-5-5-5-5-2-3-----|


VERSE 1

                                                She's so young at heart

G|-----------------------------------------------------------------------|
D|-----------------------------------------------------------------------|
A|-------------------------------2---------------------------------------|
E|-0-0-0-0-0-0-0-0-0-0-0-0-0-2-3---0-0-0-0-0-0-0-0-0-0-0-0-0-2-3-0-0-0-0-|

     She likes the pleasure of his company     She cuts the inside groove

G|-----------------------------------------------------------------------|
D|-----------------------------------------------------------------------|
A|-------------------------------2-----------------------------2---------|
E|-0-0-0-0-0-0-0-0-0-0-0-0-0-2-3---0-0-0-0-0-3-0-0-0-0-0-0-2-2---0-0-0-0-|

               With her silver spoon          She likes her tapes on 10

G|-----------------------------------------------------------------------|
D|-----------------------------------------------------------------------|
A|-------------------------------2-----------------------------2---------|
E|-0-0-0-0-3-0-0-0-0-0-0-0-0-2-3---0-0-0-0-0-3-0-0-0-0-0-0-2-2---0-0-0-0-|

            And it's the same as her anatomy    She's on a rainbow cruise

G|-----------------------------------------------------------------------|
D|-----------------------------------------------------------------------|
A|-------------------------------2-----------------------------2---------|
E|-0-0-0-0-3-0-0-0-0-0-0-0-0-2-3---0-0-0-0-0-3-0-0-0-0-0-0-2-2---0-0-0-0-|

            All the way to my room               She's turnin'

G|-----------------------------------------------------------------------|
D|-----------------------------------------------------------------------|
A|-------------------------------2---------------------------------------|
E|-0-0-0-0-3-0-0-0-0-0-0-0-0-2-3---0-0-0-0-0-3-0-0-0-0-0-0-0-0-----------|


CHORUS 1

  on the heat     She's got the magic touch      She's turnin'

G|-----------------------------------------------------------------------|
D|---------------------------------------------------7-7-7-7-7-----------|
A|-------4-4-4-4-4-4-4-4-4-4-4-4-4-4-4-----------------------------------|
E|-4-2-0-------------------------------5-5-5-5-5-5-5---------------------|

  on the heat  And it's a little too much        She's turnin'

G|-----------------------------------------------------------------------|
D|-6-4-----------------------------------------------7-7-7-7-7-----------|
A|-----7-4-4-4-4-4-4-4-4-4-4-4-4-4-4-4-----------------------------------|
E|-------------------------------------5-5-5-5-5-5-5---------------------|

  on the heat  And it's a hundred above, yeah              Hot girls in love

G|-----------------------------------------------------------------------|
D|-6-4---------------------------------------------------7---------------|
A|-----7-4-4-4-4-4-4-4-4-4-4-4-4-4-4-4-----------------------------------|
E|-------------------------------------5-5-5-5-5-5-5-5-5-----------------|


VERSE 2

                           I'm in love             Too many men to please

G|-----------------------------------------------------------------------|
D|-----------------------------------------------------------------------|
A|-------------------------------2---------------------------------------|
E|-0-0-0-0-0-0-0-0-0-0-0-0-0-2-3---0-0-0-0-0-0-0-0-0-0-0-0-0-0-0-0-0-0-0-|

          She counts them all on her rosary You know you might get burned

G|-----------------------------------------------------------------------|
D|-----------------------------------------------------------------------|
A|-------------------------------2-----------------------------2---------|
E|-0-0-0-0-0-0-0-0-0-0-0-0-0-2-3---0-0-0-0-0-0-0-0-0-0-0-0-2-2---0-0-0-0-|

            So be careful where you touch     She gets it when she can

G|-----------------------------------------------------------------------|
D|-----------------------------------------------------------------------|
A|-------------------------------2-----------------------------2---------|
E|-0-0-0-0-0-0-0-0-0-0-0-0-0-2-3---0-0-0-0-0-0-0-0-0-0-0-0-2-2---0-0-0-0-|

                  Don't need no anniversary   And she deserves the best, yeah

G|-----------------------------------------------------------------------|
D|-----------------------------------------------------------------------|
A|-------------------------------2-----------------------------2---------|
E|-0-0-0-0-3-0-0-0-0-0-0-0-0-2-3---0-0-0-0-0-3-0-0-0-0-0-0-2-2---0-0-0-0-|

                    A cut above the rest          She's turnin'

G|-----------------------------------------------------------------------|
D|-----------------------------------------------------------------------|
A|-------------------------------2---------------------------------------|
E|-0-0-0-0-3-0-0-0-0-0-0-0-0-2-3---0-0-0-0-0-3-0-0-0-0-0-0-0-0-----------|


CHORUS 2

  on the heat     She's got the magic touch      She's turnin'

G|-----------------------------------------------------------------------|
D|-----------------------------------------------------------------------|
A|-------4-4-4-4-4-4-4-4-4-4-4-4-4-4-4-----------------------------------|
E|-4-2-0-------------------------------5-5-5-5-5-5-5-5-5-5-5-5-----------|

  on the heat  Ooh it's a little too much        She's turnin'

G|-----------------------------------------------------------------------|
D|-----------------------------------------------------------------------|
A|-------4-4-4-4-4-4-4-4-4-4-4-4-4-4-4-----------------------------------|
E|-4-2-0-------------------------------5-5-5-5-5-5-5-5-5-5-5-5-----------|

  on the heat             It's a hundred above             Hot girls in love

G|-----------------------------------------------------------------------|
D|-----------------------------------------------------------------------|
A|-------4-4-4-4-4-4-4-4-4-4-4-4-4-4-4-----------------------------------|
E|-4-2-0-------------------------------5-5-5-5-5-5-5-5-5-5---------------|


BRIDGE

                   And baby, I'm in love                    Some say she

G|-----------------------------------------------------------------------|
D|-----------------------------------------------------------------------|
A|-------------------------------2---------------------------------------|
E|-0-0-0-0-0-0-0-0-0-0-0-0-0-2-3---0-0-0-0-0-0-0-0-0-0-0-0-0-0-0-0-0-0-0-|

   do              Some say she don't         Some say she will (she will)

G|-----------------------------------------------------------------------|
D|-----------------------------------------------------------------------|
A|-------------4-2-2-2-2-2-2-4-------------4-2-2-2-2-2-4-------------4-2-|
E|-2-2-4-4-5-5-----------------2-2-4-4-5-5---------------2-2-4-4-5-5-----|

  And some say she won't (she won't) Some say she can't              Well,

G|-----------------------------------------------------------------------|
D|-----------------------------------------------------------------------|
A|-2-2-2-2-2-2-2-4-------------4-2-2-2-2-2-2-2-2-4-------------4-2-2-2-2-|
E|-----------------2-2-4-4-5-5---------------------2-2-4-4-5-5-----------|

    I know she can              I say I got to be              Her lovin'

G|-----------------------------------------------------------------------|
D|-----------------------------------------------------------------------|
A|-2-2-2-2-2-4-------------4-2-2-2-2-2-2-2-2-4-------------4-2-2-2-2-2-4-|
E|-------------2-2-4-4-5-5---------------------2-2-4-4-5-5---------------|

   man,           yeaah    

G|-----------------------------------------------------------------------|
D|-----------------------------------------------------------------------|
A|-------------4-2-2-2-2-2-2-2-2-----------------------------------------|
E|-2-2-4-4-5-5-----------------------------------------------------------|


SOLO


G|-----------------------------------------------------------------------|
D|-----------------------------------------------------------------------|
A|-----------------------------------------------------------------------|
E|-12\-0-0-0-0-0-0-0-0-0-0-0-0-0-0-0-7-7-6-6-5-5-3-3-0-0-0-0-0-0-0-0-0-0-|



G|-----------------------------------------------------------------------|
D|-----------------------------------------------------------------------|
A|-----------------------------------------------------------------------|
E|-3-5-5-5-5-5-5-5-5-5-5-5-5-5-5-5-5-7-7-6-6-5-5-3-3-0-0-0-0-0-0-0-0-0-0-|

                                                            She's turnin'

G|-----------------------------------------------------------------------|
D|-----------------------------------------------------------------------|
A|-----------------------------------------------------------------------|
E|-3-5-5-5-5-5-5-5-3-5-5-5-5-5-5-5-5-7-7-7-7-7-7-7-7-7-7-7-7-7-7-7-7-7-7-|


CHORUS 3

  on the heat     She's got the magic touch      She's turnin'

G|-----------------------------------------------------------------------|
D|-----------------------------------------------------------------------|
A|-------4-4-4-4-4-4-4-4-4-4-4-4-4-4-4-----------------------------------|
E|-4-2-0-------------------------------5-5-5-5-5-5-5-5-5-5-5-5-----------|

  on the heat Ooh and it's a little too much     She's turnin'

G|-----------------------------------------------------------------------|
D|---------------------------------------------------7-7-7-7-7-----------|
A|-------4-4-4-4-4-4-4-4-4-4-4-4-4-4-4-----------------------------------|
E|-4-2-0-------------------------------5-5-5-5-5-5-5---------------------|

  on the heat             It's a hundred above             Hot girls in love

G|-----------------------------------------------------------------------|
D|-6-4-------------------------------------------------------------------|
A|-----7-4-4-4-4-4-4-4-4-4-4-4-4-4-4-4-------------------/12-------------|
E|-------------------------------------5-5-5-5-5-5-5-5-5-----------------|


OUTRO

                       Hot girls in love            It's a hundred above

G|-----------------------------------------------------------------------|
D|-----------------------------------------------------------------------|
A|-------------------------------2---------------------------------2-----|
E|-0-0-0-0-0-0-0-0-0-0-0-0-0-2-3---0-0-0-0-0-0-3-0-0-0-0-0-0-0-2-3---0-0-|

              The hot girls in love, yeah    Be careful where you touch

G|-----------------------------------------------------------------------|
D|-----------------------------------------------------------------------|
A|---------------------------2---------------------------------2---------|
E|-0-0-0-0-0-3-0-0-0-0-0-2-3---0-0-0-0-3-0-3-0-0-0-0-0-0-0-2-3---0-0-0-0-|
              
         'Cause it's a little too much    She's got everything she'll need, yeah

G|-----------------------------------------------------------------------|
D|-----------------------------------------------------------------------|
A|-------------------------2-----------------------------------2---------|
E|-3-0-3-0-0-0-0-0-0-0-2-3---0-0-0-0-3-0-3-0-0-0-0-0-0-0-0-2-3---0-0-0-0-|

           But she doesn't want me           She's turning on the heat

G|-----------------------------------------------------------------------|
D|-----------------------------------------------------------------------|
A|-------------------------2-----------------------------------2---------|
E|-3-0-3-0-0-0-0-0-0-0-2-3---0-0-0-0-3-0-3-0-0-0-0-0-0-0-0-2-3---0-0-0-0-|

        She's turning on the heat    She's got that look in her eye

G|-----------------------------------------------------------------------|
D|-------2-------------2-------------------------------------------------|
A|-----------------------------------------------------------------------|
E|-3-0-3---0-0-0-3-2-3---0-0-0-0-0-2-3-0-0-0-0-2-3-2-3-0-0-0-0-0-2-3-0-0-|

I think I've got to know why    Oooooh, hot girls in love, in love

G|-----------------------------------------------------------------------|
D|-----------0-2---------------------------------------------------------|
A|---------2-------------------------------------------------------------|
E|-0-0-0-3-------0-0-0-0-2-3-0-0-0-0-2-3-2-3-0-0-0-0-0-0-0-0-0-0-0-0-0-0-|


| /  slide up
| \  slide down
| h  hammer-on
| p  pull-off
| ~  vibrato
| +  harmonic
| x  Mute note


Questions? Comments? Corrections? outpatient@ptd.net

            
            
Suggest correction
Creating personal tab
Creating personal tab
You can edit any tab online and save it as your Personal.

You can edit, replace or remove any tab part or add personal notes – all changes will be seen only by you.

Personal tabs can be accessed anytime from any device, even offline.
Learn more »
Give kudos to tab author, rate the tab!
1 2 3 4 5
comments
print report bad tab
guest
You may want to rate the tab now too:
select rating
Wanna post a correction for this tab? Suggest correction