Oops, an error
Loading. Please wait.

Turn Me Loose Bass

version 1
version 1

Whole song

Interactive

21,372 views 3 this week
no commentswrite comment
1 2 3 4 5
x 9
add to favorites
×
Save as Personal and add changes to this tab that will be seen only by you. Learn more ›
×
You can save this tab as Personal to edit and correct it or add notes. All changes will be seen only by you. Learn more »
save as personal
new!
launch autoscroll
font size
0
reset
guitar tuner
backing track
0:00
0:00
Autoscroll
slow
fast
+/-
esc
set tempo
stop
[Intro]
(x2)
G|----------------------------------------------------------------------|
D|---5--5-------5---5------5---4---3---3-------3---4---5---5------------|
A|----------------------------------------------------------------------|
E|-3---3------3---3------3---2---1---1-------1---2---3---3--------1-2---|

E|-------------------------------------------------------------------------|
D|---5--5----5--5----5--5----5--5--5--4--3--3--3--3--4--4--5--5------------|
A|-------------------------------------------------------------------------|
E|-3--3----3--3----3--3-----3--3--3--2--1--1--1--1--2--2--3--3----3-3-0-1-2|

[Verse/Chorus]
E|-------------------------------------------------------------------------|
D|---5--5----5--5----5--5----5--5--5--4--3--3--3--3--4--4--5--5------------|
A|-------------------------------------------------------------------------|
E|-3--3----3--3----3--3-----3--3--3--2--1--1--1--1--2--2--3--3----3-3--0-12|

[Break]
G|----------------------------------------------------------------------|
D|----------------------------------------------------------------------|
A|--------5--7--------5-----------5--7---------3------------------------|
E|-0---5--------0---5----2--0---5-------0---0-5-------------------------|
Suggest correction
comments
print report bad tab
guest
Wanna post a correction for this tab? Suggest correction