Oops, an error
Loading. Please wait.

Turn Me Loose tab

version 2
version 2

Whole song

Interactive

1,564 views 27 this week
no commentswrite comment
1 2 3 4 5
3 more votes to show rating
add to favorites
×
Save as Personal and add changes to this tab that will be seen only by you. Learn more ›
×
You can save this tab as Personal to edit and correct it or add notes. All changes will be seen only by you. Learn more »
launch autoscroll
font size
0
reset
how to read this tab
guitar tuner
backing track
0:00
0:00
edit
Autoscroll
slow
fast
+/-
esc
set tempo
stop
Author
Difficulty
[Intro] 

(keyboard and bass)

e|-------------|-------------|-------------|-------------|-----------------------|
B|-------------|-------------|-------------|-------------|-----------------------|
G|-------------|-------------|-------------|-------------|-----------------3-----|
D|-------------|-------------|-------------|-------------|-----5-----------3-----|
A|-------------|-------------|-------------|-------------|-5---5-----------1-----|
E|-------------|-------------|-------------|-------------|-3---3-------3---------|

e|-------------|-----------------------|-------------|-----------------3-----|-3-----------------------|
B|-------------|-----------------------|-------------|-----------------1-----|-1-----------------------|
G|-3------3----|-----------------3-----|-3------3----|-----------------------|-------------------------|
D|-3------3----|-----5-----------3-----|-3------3----|-----3-----------------|-------------------------|
A|-1------1----|-5---5-----------1-----|-1------1----|-3---3-----------------|-------3---------4---4---|
E|-------------|-3---3-------3---------|-------------|-1---1-------1---------|-------1---1--1--2---2---|

e|-----------------------|------------------------|-----------------------|----------------------------------|
B|-----------------------|------------------------|-----------------------|----------------------------------|
G|-----------------3-----|-3-------3---5b----3----|-----------------3-----|-3---------------3---5-----3------|
D|-----5-----------3-----|-3---5------------------|-----5-----------3-----|-3---------------3---5-----3------|
A|-5---5-----------1-----|-1----------------------|-5---5-----------1-----|-1---5-------5---1----------------|
E|-3---3-------3---------|------------------------|-3---3-------3---------|-----3-------3--------------------|

e|---------------------------|-------3---------------------------|-----------------3/10--|
B|---------------------------|-----------6p-3-----3--------------|-----------------1/8---|
G|-----------------3-----5b--|-5b--------------5-----6--5--3--3--|-----------------------|
D|-----5-----------3---------|-----------------------------------|-----3-----------------|
A|-5---5-----------1---------|-----------------------------------|-3---3-----------------|
E|-3---3-------3-------------|-----------------------------------|-1---1-------1---------|

e|------15\------------------------|---------------------------|-------------------------------------------|
B|------13\------------------------|---------------------------|-------------------------------------------|
G|---------------------------------|-----------------3----5b---|-5b----3h-5p-3-----------------------------|
D|---------------------------------|-----5-----------3---------|----------------5--5--5--3--5--3-----------|
A|---------------------------------|-5---5-----------1---------|----------------------------------5--5--5--|
E|-----------1--1--1--1--2---2--2--|-3---3-------3-------------|-------------------------------------------|


[Verse/Chorus]

(repeat as needed)

PM-------------------------------------------------------------------------------------------------------| 
e|-----------------------|-----------------------|-----------------------|---------------------------------|
B|-----------------------|-----------------------|-----------------------|---------------------------------|
G|-----------------------|-----------------------|-----------------------|---------------------------------|
D|-----------------------|-----------------------|-----------------------|---------------------------------|
A|-----------------------|-----------------------|-----------------------|---------------------------------|
E|-3---3---3---3---------|-3---3---3---3---------|-3---3---3---3---------|-3---3---3---3---3---3---2---2---|

PM--------------------------------------------------------------------------| 
e|-----------------------|---------------------------------|-----------------------|
B|-----------------------|---------------------------------|-----------------------|
G|-----------------------|---------------------------------|-----------------------|
D|-----------------------|---------------------------------|-----------------------|
A|-----------------------|---------------------------------|-----------------------|
E|-1---1---1---1---------|-1---1---1---1---2---2---2---2---|-3---3---3---3---------|

PM-------------------------------| 
e|---------------------------------|
B|---------------------------------|
G|---------------------------------|
D|---------------------------------|
A|---------------------------------|
E|-3---3---0---0---1---1---2---2---|

I was born to run,
I was born to dream,
The craziest boy you ever seen,
I gotta do it my way,
Or no way at all.

And I was here to please,
I'm even on knees
Makin love to whoever I please,
I gotta do it my way,
Or no way at all.

And then you came around,
Tried to tie me down,
I was such a clown,
You had to have it your way,
Or no way at all.

Well I've had all I can take,
I can't take it no more,
I'm gonna pack my bags and fly...... Baby,
Or no way at all.

So why don't you turn me loose,
Turn me loose,
Turn me loose,
I gotta do it my way,
Or no way at all.

Why don't you turn me loose,
Turn me loose,
Turn me loose,
I gotta do it my way,
I wanna fly.


[Bridge]

e|-----------------7-----|-----------------------------------|
B|-----------------5-----|-----------------------------------|
G|-----------------------|-----------------------------------|
D|-----------------------|-----------------------------------|
A|-----------------------|-----------------------------------|
E|-0---0---0---0---------|-5---5--5--5---5---3---3---2---2---|

e|-----------------7-----|-----------------------------------|
B|-----------------5-----|-----------------------------------|
G|-----------------------|-----------------------------------|
D|-----------------------|-----------------------------------|
A|-----------------------|-----------------------------------|
E|-0---0---0---0---------|-5---5--5--5---5---3---3---2---2---|

e|-----------------7-----|-----------------------------------|
B|-----------------5-----|-----------------------------------|
G|-----------------------|-----------------------------------|
D|-----------------------|-----------------------------------|
A|-----------------------|-----------------------------------|
E|-0---0---0---0---------|-5---5--5--5---5---3---3---2---2---|

e|---------------------------------|-----------------------|
B|---------------------------------|-----------------------|
G|---------------------------------|-------------5-----5---|
D|---------------------------------|---------6-------------|
A|---------------------------------|-----7-----------------|
E|-0---0---0---0---0---0---0---0---|-0---------------------|


[Verse/Chorus]

(repeat as needed)

PM-------------------------------------------------------------------------------------------------------| 
e|-----------------------|-----------------------|-----------------------|---------------------------------|
B|-----------------------|-----------------------|-----------------------|---------------------------------|
G|-----------------------|-----------------------|-----------------------|---------------------------------|
D|-----------------------|-----------------------|-----------------------|---------------------------------|
A|-----------------------|-----------------------|-----------------------|---------------------------------|
E|-3---3---3---3---------|-3---3---3---3---------|-3---3---3---3---------|-3---3---3---3---3---3---2---2---|

PM----------------------------------------------------------------------------| 
e|-----------------------|---------------------------------|-----------------------|
B|-----------------------|---------------------------------|-----------------------|
G|-----------------------|---------------------------------|-----------------------|
D|-----------------------|---------------------------------|-----------------------|
A|-----------------------|---------------------------------|-----------------------|
E|-1---1---1---1---------|-1---1---1---1---2---2---2---2---|-3---3---3---3---------|

PM--------------------------------| 
e|---------------------------------|
B|---------------------------------|
G|---------------------------------|
D|---------------------------------|
A|---------------------------------|
E|-3---3---0---0---1---1---2---2---|

I'm here to please,
I'm even on my knees,
Makin love to whoever I please,
I gotta do it my way,
I gotta do it my way,
And when you came around,
You tried to tie me down,
I was such a clown,
You had to have it your way,
Well I'm sayin no way,

So why don't you turn me loose,
Turn me loose,
Turn me loose,
I gotta do it my way,
Or no way at all.

Why don't you turn me loose,
Turn me loose,
Turn me loose,
I gotta do it my way,
I wanna fly.


[Riff before solo]

e|-----------------------|-----------------------------|
B|-----------------------|-----------------------------|
G|-----------------3-----|-3---------------3-----------|
D|-----5-----------3-----|-3---------------3-----------|
A|-5---5-----------1-----|-1---5-------5---1-----5--5--|
E|-3---3-------3---------|-----3-------3---------3--3--|

e|------------------------------|------------------------------|-----------------3-----|
B|------------------------------|------------------------------|-----------------1-----|
G|-----------------3----5---3---|-----------------3----5---3---|-----------------------|
D|-----5-----------3----5---3---|-----------------3----5---3---|-----------------------|
A|-5---5-----------1------------|-----5-----------1------------|-----3-----------------|
E|-3---3-------3----------------|-----3-------3----------------|-----1-------1---------|

e|-3---------------------------------|---------------------------|
B|-1---------------------------------|---------------------------|
G|-----------------------------------|-----------------3----5----|
D|-----------------------------------|-----5-----------3---------|
A|-----------------------------------|-5---5-----------1---------|
E|-----1--1--1---1---1---1---2---2---|-3---3-------3-------------|


[Guitar Solo]

e|------3---------------------------------|
B|----------6--3--------6--5--3-----3-----|
G|-5--------------6--5-----------5-----5--|
D|----------------------------------------|
A|----------------------------------------|
E|----------------------------------------|

e|---------------------------------------|-----3---------------------3-----|
B|---------------------------------------|---------6--3-----3-----------3--|
G|-5-------3--------5----3---5-----3--5--|-5-------------5-----5-----------|
D|---------------5-----------------------|---------------------------------|
A|---------------------------------------|---------------------------------|
E|---------------------------------------|---------------------------------|

e|-3-----3---3--3--3---5---5---5---5---|
B|----3------6--3--3-------------------|
G|-------------------------------------|
D|-------------------------------------|
A|-------------------------------------|
E|-------------------------------------|

e|-5---3---3---------------------|-13-15----13-15-17-------------15---------|
B|------------6--3--6--6-----15--|-------15----------15----18-------18---18-|
G|-------------------------------|------------------------------------------|
D|-------------------------------|------------------------------------------|
A|-------------------------------|------------------------------------------|
E|-------------------------------|------------------------------------------|

e|-----------------------------------------|
B|-18-15----15-----------------------------|
G|-------17----18-17-15----15-17---17-17---|
D|----------------------17-----------------|
A|-----------------------------------------|
E|-----------------------------------------|

e|----------------------15-------------------|------------------------------|------------------------|
B|----15-----15-----15-----18-15----15-------|------------------------------|------------------------|
G|-17-----17-----17--------------17----18-17-|-15----15-17-17----5----5--3--|------------------------|
D|-------------------------------------------|----17------------------------|-5--------------3--5----|
A|-------------------------------------------|------------------------------|-------3--4--5----------|
E|-------------------------------------------|------------------------------|------------------------|

e|---------------3--------|------------------------------|-----------------|
B|-------------------6----|-6------------11--13--13--13--|-13---13---------|
G|-----------5------------|----------12------------------|-----------12----|
D|-5----------------------|------------------------------|-----------------|
A|------------------------|------------------------------|-----------------|
E|------------------------|------------------------------|-----------------|

e|--------------------------------------|
B|--------------------------11----11-13-|
G|-----12-10-12-10---10--------12-------|
D|--------------------------------------|
A|--------------------------------------|
E|--------------------------------------|

e|-----------------------------|--------13-13--13--13--13----15---|-15---------------------|
B|-13--13----13-11----11-------|-----15-------------------15------|-------18-15----15------|
G|-----------------12----12----|----------------------------------|-------------17----17---|
D|-----------------------------|----------------------------------|------------------------|
A|-----------------------------|----------------------------------|------------------------|
E|-----------------------------|----------------------------------|------------------------|

e|---------------------------|------------------15--------------|------------------------------|
B|---------15-------15-------|-15-------15----------18-15----15-|-----15-------15--------------|
G|-----17-------17-------17--|------17------17------------17----|-17-------17------17--17--15--|
D|-17------------------------|----------------------------------|------------------------------|
A|---------------------------|----------------------------------|------------------------------|
E|---------------------------|----------------------------------|------------------------------|

e|-----------------|-------------3---|-------------------6---|-6-----------------------------------------|
B|-----------------|-----------------|-6---3---6---6-----6---|-------------------------------------------|
G|-15--15----12----|-5-----5---------|-----------------------|-------3--5--3--5--3-----------------3--5--|
D|-----------------|-----------------|-----------------------|----------------------5--3-----3--5--------|
A|-----------------|-----------------|-----------------------|----------------------------5--------------|
E|-----------------|-----------------|-----------------------|-------------------------------------------|

e|--------------------------------------|
B|--------------------------------------|
G|-5----5---3---5--3--------------------|
D|--------------------5--3--------------|
A|--------------------------5--4--3-----|
E|-----------------------------------6--|


e|-----------------------------|-----------------------------|
B|-----------------------------|-----------------------------|
G|-----------------3-----------|-----------------3-----------|
D|-----5-----------3-----------|-----5-----------3-----------|
A|-5---5-----------1-----------|-5---5-----------1-----------|
E|-3---3-------3---------3--3--|-3---3-------3---------3--3--|

e|------------------------------|------------------------------|------------------------------|
B|------------------------------|------------------------------|------------------------------|
G|-----------------3----5---3---|-----------------3----5---3---|------------------------------|
D|-----5-----------3----5---3---|-----5-----------3----5---3---|-----3-----------3--------3---|
A|-5---5-----------1------------|-5---5-----------1------------|-3---3-----------3--------3---|
E|-3---3-------3----------------|-3---3-------3----------------|-1---1---1---1---1----1---1---|

e|---------------------------------|---------------------------|--------|-----------------------|
B|---------------------------------|---------------------------|--------|-----------------------|
G|---------------------------------|-----------------3----5----|-5------|-----------------------|
D|-----3---------------------------|-----5-----------3---------|--------|-----5-------5---------|
A|-3---3---------------3-----------|-5---5-----------1---------|--------|-----------------------|
E|-1---1---1---1---1---1---2---2---|-3---3-------3-------------|--------|-3-------3-------------|


[Outro]

e|-----------------------|-----------------------|---------------------------------|
B|-----------------------|-----------------------|---------------------------------|
G|-----------------------|-----------------------|---------------------------------|
D|-----5-------5---------|-----5-------5---------|-----5-------5-------4-------4---|
A|-----------------------|-----------------------|---------------------------------|
E|-3-------3-------------|-3-------3-------------|-3-------3-------2-------2-------|

e|-----------------------|---------------------------------|-----------------------|
B|-----------------------|---------------------------------|-----------------------|
G|-----------------------|---------------------------------|-----------------------|
D|-----3-------3---------|-----3-------3-------4-------4---|-----5-------5---------|
A|-----------------------|---------------------------------|-----------------------|
E|-1-------1-------------|-1-------1-------2-------2-------|-3-------3-------------|

Turn me loose,
Turn me loose,
Turn me loose,

Turn me loose,
Turn me loose,
Turn me loose.


***********************************
| /   Slide up
| \   Slide down
| h   Hummer-on
| p   Pull-off
| b   Bend
***********************************

            
            
Suggest correction
Creating personal tab
Creating personal tab
You can edit any tab online and save it as your Personal.

You can edit, replace or remove any tab part or add personal notes – all changes will be seen only by you.

Personal tabs can be accessed anytime from any device, even offline.
Learn more »
Give kudos to tab author, rate the tab!
1 2 3 4 5
comments
print report bad tab
guest
You may want to rate the tab now too:
select rating
Wanna post a correction for this tab? Suggest correction