Oops, an error
Loading. Please wait.

Working For The Weekend Bass Tab

version 1
version 1

Whole song

Interactive

6,177 views 27 this week
no commentswrite comment
1 2 3 4 5
accurate
x 7
add to favorites
launch autoscroll
font size
0
reset
guitar tuner
Tab Pro tools
  • play this tab
  • loop segment
  • change instrument
  • show fretboard
  • metronome
×
Best way to learn
"Working For The Weekend"
Autoscroll
slow
fast
+/-
esc
set tempo
stop
Contributor
Difficulty
novice
---------------------------------------------------------------------------
                 LOVERBOY - WORKING FOR THE WEEKEND
---------------------------------------------------------------------------

Tabbed By : James Ryan
http://world-according-to-jim.blogspot.com

Tuning: Standard


Intro
|--------------------------------|
|--------------------------------|
|-2-2-2-2-2-2-2-2-------0--------|
|-----------------0-1-2---0-1-2--|x4


Verse
|-------------------------------------------------------------------|
|-------------------------------------------------------------------|
|--0-2-2-2-2-2-2-2-2-2-2-2-2-2-2---------------------------------0--|
|--------------------------------2-3-3-3-3-3-3-3-3-3-3-3-3-3-0-3----|

|------------------------------------------------------------------|
|------------------------------------------------------------------|
|-2-2-2-2-2-2-2-2-2-2-2-2-2-2-2------------------------------------|
|-------------------------------2-4-4-4-4-4-4-4-4-0-0-0-0-0-0-0-0--|x2

PreChorus
|-------------------------------------------------------------------|
|-------------------------------------------------------------------|
|--5-5-5-5-5-5-5-0-5-5-5-5-5-5-5-0----------------------------------|
|----------------------------------3-3-3-3-3-3-3-3-3-2-2-0-0-2-3-5--|

                        
|-------------------------------------------------|   |---------------|   |-----------------|
|-------------------------------------------------|   |---------------|   |-----------------|
|-5-5-5-5-5-5-5-0-5-5-5-5-5-5-5-0-----------------|   |---------------|   |-----------------|
|---------------------------------3-3-3-3-3-3-3-3-|1st|5-5-5-5-5-5-5-5|2nd|3-3-3-3-3-3-3-3-3|

Chorus

Intro x3
                                  
|----------------------------|
|----------------------------|
|------------2-3----3--2-----|
|--3-----3-5--------------2--|x3

Intro x1

Verse

Chorus

Guitar Solo
|-----------------------------------------------------------|
|-----------------------------------------------------------|
|-----------------------------2--2--2---2-----2--2--2--2----|
|-3--3--3-0-3-0-3--3--3-0-3-0---------2---2-----------2--2--|x2
comments
print report bad tab
I want to post or [tab]
guest
You may want to rate the tab now too:
select rating
Please do not post tabs as comments. Select "correction" instead!