Oops, an error
Loading. Please wait.

2-Step tab

by Low
3,881 views 6 this week
3 commentsread comments
1 2 3 4 5
x 7
add to favorites
×
Save as Personal and add changes to this tab that will be seen only by you. Learn more ›
×
You can save this tab as Personal to edit and correct it or add notes. All changes will be seen only by you. Learn more »
launch autoscroll
font size
0
reset
how to read this tab
guitar tuner
edit
Autoscroll
slow
fast
+/-
esc
set tempo
stop
Author
Difficulty
LOW - 2-Step (Transcription Hanoihancock)
DGDGAD

  And the light it  burns your skin  in a language you don't understand
D |--2----2--------|--4------------|--2----2----------------|--4----------||
A |--2----2--------|--4------------|--2----2----------------|--4----------||
G |--4----4--------|--6------------|--4----4----------------|--6----------||
D |--2----2--------|--4------------|--2----2----------------|--4----------||
G |--2----4--------|--4------------|--2----4----------------|--4----------||
D |--X----2--------|--X------------|--X----2----------------|--X----------||

  It's not that hard.               It is not that hard 
D |--2----2--------|--4------------|--2----2----------------|--4----------||
A |--2----2--------|--4------------|--2----2----------------|--4----------||
G |--4----4--------|--6------------|--4----4----------------|--6----------||
D |--2----2--------|--4------------|--2----2----------------|--4----------||
G |--2----4--------|--4------------|--2----4----------------|--4----------||
D |--X----2--------|--X------------|--X----2----------------|--X----------||


  That's not all, voices small heed them either way they call...
D |--6----2----------|--2----------------2--|--2-------------|--2--2--|--4||
A |--7----2----------|--2----------------2--|--2-------------|--2--2--|--4||
G |--6----4----------|--1----------------1--|--1-------------|--4--4--|--6||
D |--6----2----------|--2----------------2--|--2-------------|--2--2--|--4||
G |--6----2----------|--1----------------0--|--0-------------|--2--4--|--4||
D |--X----X----------|--X----------------X--|--X-------------|--X--2--|--X||

  (Instrumental)
D |--2----2----------------|--4--------------||
A |--2----2----------------|--4--------------||
G |--4----4----------------|--6--------------||
D |--2----2----------------|--4--------------||
G |--2----4----------------|--4--------------||
D |--X----2----------------|--X--------------||

   Two Step       around the room   kneel down               on white   
D |--2----2--------|--4------------|--2----2----------------|--4----------||
A |--2----2--------|--4------------|--2----2----------------|--4----------||
G |--4----4--------|--6------------|--4----4----------------|--6----------||
D |--2----2--------|--4------------|--2----2----------------|--4----------||
G |--2----4--------|--4------------|--2----4----------------|--4----------||
D |--X----2--------|--X------------|--X----2----------------|--X----------||

   Two Step       around the room   kneel down               on white   
D |--2----2--------|--4------------|--2----2----------------|--4----------||
A |--2----2--------|--4------------|--2----2----------------|--4----------||
G |--4----4--------|--6------------|--4----4----------------|--6----------||
D |--2----2--------|--4------------|--2----2----------------|--4----------||
G |--2----4--------|--4------------|--2----4----------------|--4----------||
D |--X----2--------|--X------------|--X----2----------------|--X----------||

(Harmony)
   Two Step       around the room   you can kneel down       on white   
D |--2----2--------|--4------------|--2----2----------------|--4----------||
A |--2----2--------|--4------------|--2----2----------------|--4----------||
G |--4----4--------|--6------------|--4----4----------------|--6----------||
D |--2----2--------|--4------------|--2----2----------------|--4----------||
G |--2----4--------|--4------------|--2----4----------------|--4----------||
D |--X----2--------|--X------------|--X----2----------------|--X----------||






   Two Step       around the room   you can kneel down       on white   
D |--2----2--------|--4------------|--2----2----------------|--4----------||
A |--2----2--------|--4------------|--2----2----------------|--4----------||
G |--4----4--------|--6------------|--4----4----------------|--6----------||
D |--2----2--------|--4------------|--2----2----------------|--4----------||
G |--2----4--------|--4------------|--2----4----------------|--4----------||
D |--X----2--------|--X------------|--X----2----------------|--X----------||





  That's not all voices small heed them either way they call...
D |--6---------------|-------------------(2)|----------------|--2--2--|--4||
A |--7-------(2)-----|-------------------(2)|----------------|--2--2--|--4||
G |--6--------4------|--4-----------------4-|----------------|--4--4--|--6||
D |--6--------2------|--2-----------------2-|----------------|--2--2--|--4||
G |--6--------2------|--1-----------------0-|----------------|--2--4--|--4||
D |--X--------X------|--X-----------------X-|----------------|--X--2--|--X||

  And the light it  burns your skin  in a language you don't understand
D |--2----2--------|--4------------|--2----2----------------|--4----------||
A |--2----2--------|--4------------|--2----2----------------|--4----------||
G |--4----4--------|--6------------|--4----4----------------|--6----------||
D |--2----2--------|--4------------|--2----2----------------|--4----------||
G |--2----4--------|--4------------|--2----4----------------|--4----------||
D |--X----2--------|--X------------|--X----2----------------|--X----------||


Suggest correction
Creating personal tab
Creating personal tab
You can edit any tab online and save it as your Personal.

You can edit, replace or remove any tab part or add personal notes – all changes will be seen only by you.

Personal tabs can be accessed anytime from any device, even offline.
Learn more »
comments
print report bad tab
3 comments total.
0 reply
gunitex 146 Aug 17, 2013 11:26 AM

re: chords over "That's not all, voices small head them either way they call..."

sounds like fourth chord over the lyric "either way they call" should have open g string instead of note on 1st fret

+1 reply
gunitex 146 Aug 17, 2013 01:33 PM

listening to the studio version, I think this is more accurate (and easier to play!) over "That's not all, voices small head them either way they call..."

D |--6---------------|---------------------|----------------|-(2)------||
A |--7---------------|-(2)-----------------|----------------|-(2)------||
G |--6---------------|--4------------------|--4-------------|--4-------||
D |--6---------------|--2------------------|--2-------------|--2-------||
G |--6---------------|--2------------------|--1-------------|--0-------||
D |--X---------------|--X------------------|--X-------------|--X-------||

guest
You may want to rate the tab now too:
select rating
Wanna post a correction for this tab? Suggest correction