Oops, an error
Loading. Please wait.

Words tab

by Low
5,617 views 12 this week
1 commentread comment
1 2 3 4 5
x 7
add to favorites
×
Save as Personal and add changes to this tab that will be seen only by you. Learn more ›
×
You can save this tab as Personal to edit and correct it or add notes. All changes will be seen only by you. Learn more »
launch autoscroll
font size
0
reset
how to read this tab
guitar tuner
edit
Autoscroll
slow
fast
+/-
esc
set tempo
stop
[Intro]
D|-----------------|-----------------|-----------------|----------------|
B|-----------------|-----------------|-----------------|----------------|
G|-----------------|-----------------|-----------------|----------------| x2
D|-----------------|-----------------|-----------------|----------------|
G|-3-------3-5-3-2-|(2)------2h3-2---|-----------------|----------------|
D|-----------------|-----------------|-3---------------|----------------|

[Verse]
Bb5        Dsus2            F                                      Bb5
     Three inches above the floor, man in a box wants to burn my soul
        Dsus2           F
and I’m tired
F                Bb5                  Dsus2
    ‘Is that the truth?’ he says, the pain is easy,
F
  too many words, too many words

[Chorus]
          Bb5          Dsus2          F
And I can hear ‘em ---------------------------------------- x 4

(intro riff x2)

[Verse]
Bb5                   Dsus2         F                                   Bb5
    If you’re hearing screams, come back child, come back, my hands are dry
Dsus2    F                                                            Bb5
                       but I know they’re gonna make it just one more night
         Dsus2           F
too many words, too many words

[Chorus]
          Bb5          Dsus2          F
And I can hear ‘em ---------------------------------------- x 4

[Solo]
D|-----------------|-----------------|-----------------|------------------|
B|-----------------|-----------------|-----------------|------------------|
G|-----------------|-----------------|-----------------|------------------|
D|-----------------|-----------------|-----------------|------------------|
G|-3-------3-5-3-2-|(2)----3---5--/7-|-5---------------|-----5-7---7--/10-|
D|-----------------|-----------------|-----------------|------------------|

D|-------------------------|--------------------|----------------|----------------|
B|-------------------------|--------------------|----------------|----------------|
G|-------------------------|--------------------|----------------|--------------3-|
D|-------------------------|--------------------|----------------|----------------|
G|(10)-9-10/12--10-10-9-10-|(10)-9-10-9-9\7-7-7\|5-5-------------|----------------|
D|-------------------------|--------------------|----------------|----------------|

D|------------------|-----------------------|-------------------|------------------|
B|------------------|-----------------------|-------------------|------------------|
G|-3/5-5/7-7-----10-|-10\9-/12---12\10-10---|-10-10---------9-7-|(7)-5---5-----5---|
D|------------------|-----------------------|-------------------|------------------|
G|-3/5-5/7-7-----10-|-10\9-/12---12\10-10---|-10-10---------9-7-|(7)-5---5-----5---|
D|------------------|-----------------------|-------------------|------------------|

D|-----------------|------------------|-----------------|----------------|
B|-----------------|------------------|-----------------|----------------|
G|-7---------5---3-|(3)-5-3---3-2-----|-----------------|----------------|
D|-----------------|------------------|-3---------------|----------------|
G|-7---------5---3-|(3)-5-3---3-2-----|-----------------|----------------|
D|-----------------|------------------|-3---------------|----------------|

[Chorus]
          Bb5          Dsus2          F
And I can hear ‘em ---------------------------------------- x 4

[Bassline] 
(played through entire song without variation.)

G|-----------------|-------------------------|-----------------|-----------------|
D|-----------------|-------------------------|-----------------|-----------------|
A|-----------------|-------------------------|-----------------|-----------------|
E|-6-6-6-6-6-6-6-6/|-10-10-10-10-10-10-10-10\|-1-1-1-1-1-1-1-1-|-1-1-1-1-1-1/8-8-|


******************************

| /   slide up
| \   slide down
| (n) hold note over bar line

******************************

            
            
Suggest correction
Creating personal tab
Creating personal tab
You can edit any tab online and save it as your Personal.

You can edit, replace or remove any tab part or add personal notes – all changes will be seen only by you.

Personal tabs can be accessed anytime from any device, even offline.
Learn more »
comments
print report bad tab
1 comment total.
0 reply
chareltje.charel 10 Aug 06, 2017 03:43 AM

This is so on point

guest
Wanna post a correction for this tab? Suggest correction