Oops, an error
Loading. Please wait.

Nothing Lasts Bass Tab

37 views 1 this week
no commentswrite comment
1 2 3 4 5
3 more votes to show rating
add to favorites
launch autoscroll
font size
0
reset
guitar tuner
×
Best way to learn
"Nothing Lasts"
Autoscroll
slow
fast
+/-
esc
set tempo
stop
Artist: LOW LIGHT
Song:   "Nothing Lasts"
         music + lyrics by Martin Schönegger


Intro: Lead Guitar only

Verse: ("I got a picture of myself ...")
G|-------------------------------------------------------|
D|-------------------------------------------------------|
A|----------------2-3-3-3-5-3----------------------------|
E|---14\0-0-0-2-4-------------5-3-3-3-0-3-0-/10-10-10\---|
  slide down from the '#f' (14th fret on the E-string) just at the       beginning - later on, slide down from the 'd' (10th fret)

PreChorus:
G|--------------------------------------|
D|--------------------------------------|
A|--------------------------------------|
E|--------------------------------------|

Chorus: ("Poets die ...")
G|--------------------------------|
D|--------------------------------|
A|-------5-5----------5-5---------|
E|---3-3-----0-0--3-3-----0*------|

Bridge: (the "Fuck You-Part")
G|----------------------|
D|----------------------|
A|---------------5--3---|
E|---0---3---5----------|

then Chorus again

then 1st Solo - during  1st Solo play:
G|--------------------------------7---|
D|------------------------------------|
A|-----------/3-3-3---------/5-5-5----|
E|---0-0-0-----------3-3-3------------|

then Chorus again

then 2nd Solo - play the same as during the 1st


/ = slide up
\ = slide down
* = hit harder and let ring
Suggest correction
Give kudos to tab author, rate the tab!
1 2 3 4 5
comments
print report bad tab
guest
You may want to rate the tab now too:
select rating
Wanna post a correction for this tab? Suggest correction