Oops, an error
Loading. Please wait.

Eleanor Tab

version 1
version 1

Whole song

3,301 views 3 this week
1 commentread comment
1 2 3 4 5
x 3
add to favorites
launch autoscroll
font size
0
reset
how to read this tab
guitar tuner
Autoscroll
slow
fast
+/-
esc
set tempo
stop
Help us to improve Ultimate-Guitar.com Take our survey!
×
Author
Music And lyrics Written bye Low Millions


This is my first tab so make any correction as needed

Standard Tuning EADGBE
 
Song starts right into a verse. Listen to song for strumming pattern and it's played clean.

The verse is a F chord
e|1-|
b|1-|
g|2-|
d|3-|
a|--|
e|--|
 Or you can use the F5 power chord which was easier for me 

e|--------------------------------------------------------|
b|--------------------------------------------------------|
g|10----10----10----10----10----10----10----10----10----10|
d|10----10----10----10----10----10----10----10----10----10|
a| 8-----8-----8-----8-----8-----8-----8-----8-----8-----8|
e|--------------------------------------------------------|
           Fine I Understand,Okay With Me If thats the plan
 You can take the stereo the TV and the video
 The bed the sheets and pillows before you go
 But for now unlock the door what are we doin'this all for
 Let me make you dinner one last time


e|------------------------------------------------------|
b|------------------------------------------------------|
g|10----10----10----10----10----10----10----101010101010|
d|10----10----10----10----10----10----10----101010101010|
a|-8-----8-----8-----8-----8-----8-----8-----8-8-8-8-8-8|This last part gets 
e|------------------------------------------------------|  distorted
  And you'll go your way and I'll go mine
 
 

 Chorus  distorted
e|-------------------------------|3rd time ------|
b|-------------------------------|end on A#5 ----|         
g|----------10101010-9---------X3|and let ring---|
d|7777-8888-10101010-9-12-10-----|8--------------|
a|7777-8888--8-8-8-8-7-12-10-----|8--------------|
e|5555-6666------------10--8-----|6--------------|
 And I won't call you baby anymore
 Won't call you baby Like I did before
 Won't call you baby        Any m o r e    Eleanor

 This is the part right before the 2nd verse and is also played at the end of
 the song
e|--------------------------------|
b|10-8-10-8-10-8-10-8-11-8-11-8-10|
g|--------------------------------| Times 2
d|--------------------------------|
a|--------------------------------|
e|--------------------------------|



  2nd verse play like first verse  F5

  You left your smell you left you taste
  you left me here with my mistakes
  And I can relate to what you say I've done
  But just for you I'll bite my tongue

  Chorus  at the end instead of letting the A#5 ring keep strumming it and   
          then it goes into the bridge

  Bridge
e|---------------------------------------------------|
b|---------------------------------------------------|
g|--------------------------1010101010101010---------|
d|55555555-1010101010101010-1010101010101010-88888888|
a|55555555-1010101010101010--8-8-8-8-8-8-8-8-88888888|
e|33333333--8-8-8-8-8-8-8-8------------------66666666|
   Eleanor       I miss you   Eleanor    be well
e|--------------------------------------------|
b|--------------------------------------------|
g|--------------------------1010101010101010--|
d|55555555-1010101010101010-1010101010101010-8|let ring on A#5
a|55555555-1010101010101010--8-8-8-8-8-8-8-8-8|
e|33333333--8-8-8-8-8-8-8-8------------------6|
   Eleanor I wish you'd release me from your spell
 

  Pre Chorus 
e|---------------------------|
b|---------------------------|
g|----------10101010-9-------|Times 4   end of 4 time he hits the wah pedal
d|7777-8888-10101010-9--12-10|          and goes into chorus
a|7777-8888--8-8-8-8-7--12-10|
e|5555-6666-------------10--8|
                     Come on
                     Eleanor
          Do it      you can
          Do it

  Chorus Times 3, end of 3rd time keep strummin A#5 and use wah pedal and back into
chorus 3 more times and end on A#5 and let ring and then play the part before the start
of 2nd verse

e|--------------------------------|
b|10-8-10-8-10-8-10-8-11-8-11-8-10|
g|--------------------------------| Times 3
d|--------------------------------|
a|--------------------------------|
e|--------------------------------|

  End on F5 chord

   I Looked over this tab and made corrections to it, I'm pretty sure this
   is right    Enjoy
Suggest correction
Give kudos to tab author, rate the tab!
1 2 3 4 5
comments
print report bad tab
1 comment total.
0 reply
LaxnGuitar 10 Feb 24, 2005 12:00 AM

pretty good except the part before the second verse should be

e|--------------------------------|
b|10-9-10-9-10-9-10-9-11-9-11-9-10|
g|10-8-10-8-10-8-10-8-10-9-10-9-10| Times 2
d|--------------------------------|
a|--------------------------------|
e|--------------------------------|

guest
You may want to rate the tab now too:
select rating
Wanna post a correction for this tab? Suggest correction