Oops, an error
Loading. Please wait.

Eleanor Tab

version 2
version 2

Whole song

1,534 views 1 this week
1 commentread comment
1 2 3 4 5
2 more votes to show rating
add to favorites
launch autoscroll
font size
0
reset
how to read this tab
guitar tuner
Autoscroll
slow
fast
+/-
esc
set tempo
stop
Help us to improve Ultimate-Guitar.com Take our survey!
×
Author
Capo
1st fret
Low Millions - Eleanor
Tabbed by Tim Missimer
I_M_TIM@Hotmail.com

Had to lean this song 'cause it's so damn catchy...

Tuning:EADGBe   (I think my guitar may be tuned up a half step from when I open tuned 
should my tab be wrong, just capo 1.)

Gtr.1 - mild dist.
Gtr.2 - clean

Verse:(bluesy)

Gtr.1 (palm mute)
  E5
e|--------|--------|--------|--------|
B|--------|--------|--------|--------|
G|--------|--------|--------|--------|
D|2-2-4-2-|2-2-4-2-|2-2-4-2-|2-2-4-2-|x2
A|2-2-4-2-|2-2-4-2-|2-2-4-2-|2-2-4-2-|
E|0-0-0-0-|0-0-0-0-|0-0-0-0-|0-0-0-0-|
  A5
e|--------|--------|--------|--------|
B|--------|--------|--------|--------|
G|--------|--------|--------|--------|
D|7-7-9-7-|7-7-9-7-|7-7-9-7-|7-7-9-7-|
A|7-7-9-7-|7-7-9-7-|7-7-9-7-|7-7-9-7-|
E|5-5-5-5-|5-5-5-5-|5-5-5-5-|5-5-5-5-|
  E5
e|--------|--------|--------|--------|
B|--------|--------|--------|--------|
G|--------|--------|--------|--------|
D|2-2-4-2-|2-2-4-2-|2-2-4-2-|2-2-4-2-|
A|2-2-4-2-|2-2-4-2-|2-2-4-2-|2-2-4-2-|
E|0-0-0-0-|0-0-0-0-|0-0-0-0-|0-0-0-0-|

Gtr.2
  E
e|----0-0-|----0---|----0-0-|----0---|
B|----0-0-|----0---|----0-0-|----0---|
G|----1-1-|----1---|----1-1-|----1---|
D|----2-2-|----2---|----2-2-|----2---|x2
A|----2-2-|----2---|----2-2-|----2---|
E|0---0-0-|--0-0---|0---0-0-|--0-0---|
  A
e|----0-0-|----0---|----0-0-|----0---|
B|----2-2-|----2---|----2-2-|----2---|
G|----2-2-|----2---|----2-2-|----2---|
D|----2-2-|----2---|----2-2-|----2---|
A|0---0-0-|--0-0---|0---0-0-|--0-0---|
E|--------|--------|--------|--------|
  E
e|----0-0-|----0---|----0-0-|----0---|
B|----0-0-|----0---|----0-0-|----0---|
G|----1-1-|----1---|----1-1-|----1---|
D|----2-2-|----2---|----2-2-|----2---|
A|----2-2-|----2---|----2-2-|----2---|
E|0---0-0-|--0-0---|0---0-0-|--0-0---|


Chorus:
Gtr.1 & Gtr. 2 (distorted)
  G#5      A5     E5         B5
e|--------|--------|--------|--------|
B|--------|--------|--------|--------|
G|--------|-------9|--9-9-9-|--------|
D|6---6-6-|7-7-7--9|--9-9-9-|9-9-9-9-|x3
A|6---6-6-|7-7-7--7|--7-7-7-|9-9-9-9-|
E|4---4-4-|5-5-5---|--------|7-7-7-7-|
  A5
e|--------|--------|--------|--------|
B|--------|--------|--------|--------|
G|--------|--------|--------|--------|
D|7---7---|7-7-7-7-|--------|--------|
A|7---7---|7-7-7-7-|---(let ring)----|
E|5---5---|5-5-5-5-|--------|--------|


Break:
Gtr.1 plays the first 4 measures from the verse twice

Gtr.2
  E
e|----------------|----------------|
B|9p7-9p7-9p7-9p7-|10p7-10p7-9-----|
G|----------------|----------------|
D|----------------|----------------|x2
A|----------------|----------------|
E|----------------|----------------|


Bridge:
Gtr.1
  F#5               B5                E5                A5
e|--------|--------|--------|--------|--------|--------|--------|--------|
B|--------|--------|--------|--------|--------|--------|--------|--------|
G|--------|--------|--------|--------|--------|--------|--------|--------|
D|4-4-4-4-|4-4-4-4-|9-9-9-9-|9-9-9-9-|2-2-2-2-|2-2-2-2-|7-7-7-7-|7-7-7-7-|x2
A|4-4-4-4-|4-4-4-4-|9-9-9-9-|9-9-9-9-|2-2-2-2-|2-2-2-2-|7-7-7-7-|7-7-7-7-|
E|2-2-2-2-|2-2-2-2-|7-7-7-7-|7-7-7-7-|0-0-0-0-|0-0-0-0-|5-5-5-5-|5-5-5-5-|

Gtr.2
  F#5               B5                E5                A5
e|--------|--------|--------|--------|--------|--------|--------|--------|
B|--------|--------|--------|--------|--------|--------|--------|--------|
G|--------|--------|--------|--------|--------|--------|--------|--------|
D|----4---|----4---|----9---|----9---|----2---|----2---|----7---|----7---|x2
A|--4---4-|--4---4-|--9---9-|--9---9-|--2---2-|--2---2-|--7---7-|--7---7-|
E|2-------|2-------|7-------|7-------|0-------|0-------|5-------|5-------|

Gtr.1 (with wah effect which stays on throughout the rest of the song)
  F#5      B5       E5       A5
e|--------|--------|--------|--------|
B|--------|--------|--------|--------|
G|3-3-3-3-|8-8-8-8-|1-1-1-1-|6-6-6-6-|
D|4-4-4-4-|9-9-9-9-|2-2-2-2-|7-7-7-7-|x4
A|4-4-4-4-|9-9-9-9-|2-2-2-2-|7-7-7-7-|
E|--------|--------|--------|--------|


The rundown:
Verse x2
Chorus
Break
Verse
Chorus
Bridge
Chorus x2
Break x2

Close enough, right?  The ending is different than what I have, but you can figure it 
 Yay!  My first tab.  Hope it's a good one.  Email with comments or corrections.
Suggest correction
Give kudos to tab author, rate the tab!
1 2 3 4 5
comments
print report bad tab
1 comment total.
0 reply
Tvox08 51 Jun 16, 2006 11:28 PM

You're right, its a half step down, but instead of capo one, just each note is one fret higher

guest
You may want to rate the tab now too:
select rating
Wanna post a correction for this tab? Suggest correction