Oops, an error
Loading. Please wait.

Eleanor Tab

version 3
version 3

Whole song

406 views 1 this week
no commentswrite comment
1 2 3 4 5
please rate
add to favorites
launch autoscroll
font size
0
reset
how to read this tab
guitar tuner
Autoscroll
slow
fast
+/-
esc
set tempo
stop
Help us to improve Ultimate-Guitar.com Take our survey!
×
Contributor
Eleanor - Low Millions

Tabbed by Devin T.

Intro

e-----------------------|
B-----------6--6-----6--|
G--5--5-----5--5-----5--|   x2
D--3--3--0--3--3--0--3--|
A-----------------------|
E-----------------------|

Verse

e-----------------------|
B-----------6--6-----6--|
G--5--5-----5--5-----5--|   x4, then
D--3--3--0--3--3--0--3--|
A-----------------------|
E-----------------------|

e--------------------|
B--------------------|
G--3--3--3-----------|
D--3--3--3--3--3--3--|
A--1--1--1--3--3--3--|
E-----------1--1--1--|

Chorus

e----------------------------------------------------|
B----------------------------------------------------|
G--6--6--6--6--7--7--7--7--10-10-10-10--9--9--10-10--|    x3, then:
D--7--7--7--7--8--8--8--8--10-10-10-10--10-10-10-10--|
A--7--7--7--7--8--8--8--8--8--8--8--8---10-10-10-10--|
E--5--5--5--5--6--6--6--6---------------8--8--8--8---|

e-------|
B-------|
G--7~~~~
D--8~~~~
A--8~~~~
E--6~~~~

Post-Chorus

e------------------------------------------|
B--10p8--10p8--10p8--10p8--11p8--11p8--10--|
G------------------------------------------|  x2
D------------------------------------------|
A------------------------------------------|
E------------------------------------------|

Bridge 1 (Strum each Chord 8 Times)

e--------------|
B--------------|
G-----5--2--3--|
D--5--5--3--3--|  x2
A--5--3--3--1--|
E--3-----1-----|

Bridge 2

e------------------------------------------------|
B------------------------------------------------|
G--6--6--6--7--7--7--7--7--10-10-10--9--9--7--5--|    x4
D--7--7--7--8--8--8--8--8--x--x--x---x--x--x--x--|
A--7--7--7--8--8--8--8--8--8--8--8---7--7--5--3--|
E--5--5--5--6--6--6--6--6------------------------|


Order:

Intro
Verse
Verse
Chorus
Post-Chorus
Verse
Chorus
Bridge 1
Bridge 2
Chorus
Chorus
Post-Chorus
Post-Chorus
Suggest correction new What's this?
You can suggest a correction to this tab. Community and Mods will review your correction and vote to approve or reject it.
comments
We did not receive enough feedback on this tab! Please rate:
print report bad tab
1 2 3 4 5
guest
You may want to rate the tab now too:
select rating
Please do not post tabs as comments. Select "correction" instead!