Oops, an error
Loading. Please wait.

Eleanor Tab

version 4
version 4

Whole song

764 views 1 this week
no commentswrite comment
1 2 3 4 5
please rate
add to favorites
launch autoscroll
font size
0
reset
how to read this tab
guitar tuner
Tab Pro tools
  • play this tab
  • loop segment
  • change instrument
  • show fretboard
  • metronome
Autoscroll
slow
fast
+/-
esc
set tempo
stop
Contributor
The chords, by ear.. 

I forgot some chords :S away from the guitar for a while...
but heres a try on this

ELEANOR - LOW MILLIONS

Verse - play AROUND the "D" chord

Fine, I understand
Okay with me, if thats the plan
You can take the stereo, the TV and the video,
The bed, the sheets and pillows,
Before you go.


e|3333--2223333--2223333--2223333--2223333--2223333--2223333--2223333--222|
b|3333--3333333--3333333--3333333--3333333--3333333--3333333--3333333--333|
g|2222--2222222--2222222--2222222--222------------------------------------|
d|------------------------------------2222--2222222--2222222--2222222--222|
a|------------------------------------------------------------------------|
e|------------------------------------------------------------------------|


But for now, unlock the door
What are we doin' all this for?
Let me make

e|3333--2223333--2223333--2223333--2223333|
b|3333--3333333--3333333--3333333--3333333|
g|2222--2222222--2222222--2222222--222----|
d|------------------------------------2222|
a|----------------------------------------|
e|----------------------------------------|

 you dinner one last time
Then you'll go your way, and I'll go mine.


e|--2223333--2223333--2223333--2223333333|
b|--3333333--3333333--3333333--3333333333|
g|--------------------------------2222222|
d|--2222222--2222222--2222222--222-------|
a|---------------------------------------|
e|---------------------------------------|


Chorus played like so:

e|------1111--------3333------1111--------3333|
b|1111--1111--1111------1111--1111--1111------|
g|2222--2222------------2222--2222------------|
d|2222--3333--2222------2222--3333--2222------|
a|------------3333--2222------------3333--2222|
e|------------------3333------------------3333|

e|------1111-------3333-33-3-3-3-3|
b|1111--1111--1111------33-3-3-3-3|
g|2222--2222----------------------|
d|2222--3333--2222------22-2-2-2-2|
a|------------3333-2222-----------|
e|-----------------3333-----------|


Chorus (tryin to remember the chords, if not correct look at chart above)

Am = And I won't 
Fm = call you 
C = baby, 
G = (any-
Am = -more) Won't 
Fm = call you 
C = baby 
G = (like I did before)
Am = Won't call you 
Fm = baby, 
G = anymore
D = Eleanor



Heres the little solo, you can play around with it

Eleanor I miss you
Eleanor be well
Eleanor I wish you'd release me from your spell

e|3333/222-222/33--222-2--------3333333333|
b|33333333-333333--333-3-11-1111----------|
g|22222222---------------22---------------|
d|---------222222--222-2-22-2222----------|
a|--------------------------33332222222222|
e|------------------------------3333333333|

Mix it up with the other versions and you can pretty much get a nice flow

Enjoy  :) 

contact:
olga7000@hotmail.com
comments
We did not receive enough feedback on this tab! Please rate:
print report bad tab
1 2 3 4 5
I want to post or [tab]
guest
You may want to rate the tab now too:
select rating
Please do not post tabs as comments. Select "correction" instead!